Oops, an error
Loading. Please wait.

Long Road Bass Tab

2,522 views 1 this week
no commentswrite comment
1 2 3 4 5
3 more votes to show rating
add to favorites
launch autoscroll
font size
0
reset
guitar tuner
Autoscroll
slow
fast
+/-
esc
set tempo
stop
Help us to improve Ultimate-Guitar.com Take our survey!
×
Author
Difficulty
novice
Album – The Long Road
Artist - Nickelback

Here is the complete bass tab for the Nickelback album “The Long Road” (way better than
THESE ARE NOT MY TABS!!! I only put them together for a more convenient album tab. I put
credits for the tab next to the title. I couldn’t find a tab for “Throw Yourself Away” 
“See You at the Show” but I’ll add them if they pop up.


---Flat on the Floor – Bass Buddha07---

Intro/chorus
f---------------------------------------------------|
c---------------------------------------------------|   2x
g---------------------------------------------------|
c--22-0-2-55-2-5-77-578757-22-0-2-55-2-5-777-5-505--|

verse
f-------------------------------------------|
c-------------------------------------------|
g-------------------------------------------|
c--22-2-22-222--0-25--22-2-22-222-0-2/(12)--|

Chorus
verse
chorus

Bridge
f----------------------------|
c----------------------------|    2x
g----------------------------|
c--222-0-2-22-0-2-22-0-5--0--|

Rest from 1:05 to 1:18, listen for fade-in, then:

Chorus

A 1:23 when verse should come in rest until 1:26 and enter with
f------rest--------------|
c------rest--------------|
g------rest--------------|
c------rest--0-2/(12)----|

Verse
Chorus 3x

ending
f------------------------|
c------------------------|
g------------------------|
c--22-2-22-222-0-5/12\2--|

---Do This Anymore - ME!---

Intro-
G----------------------|
D----------------------|
A----------------1~----|
E--1~/--4~-------------|
B------------4~--------|

Verse-
G----------------------------|
D---------------------------*|
A--------------------11111---|
E--11111-44444--------------*|
B--------------44444---------|

Prechorus-
G---------------|
D---------------|
A---------------|
E----------1111-|
B--44444444-----|

Chorus-					Chorus Variation
G------------------------------||-------------------------------||
D------------------------------||-------------------------------||
A---------------------1111111--||-----------------------1--1-3--||
E--------------44--4-----------||---------------4444--4---------||
B--11--1--44--4----------------||--11xxx--44xx4-----------------||

After Chorus Thing (also thrown in other places)
G-------------------------------|
D-------------------------------|
A----------------------1h3------|
E--1111------1111----1----------|
B-------4444-------4------------|

Fill Right Before Guitar Solo
G--------------------------------|
D--------------------------------|
A--/10-10h13-13-13--10h13-13-13--|
E--------------------------------|


---Smeday – Andrew Zara---

Intro
G|---------||
D|---------||
A|---------||
E|---------||
B|--/------||

Verse
G|-------------------------------------------------------||
D|--------------------7--7--7--7-------------------------||
A|-----------5--5--5----------------5---5----------------||
E|-------------------------------------------------------||
B|--0----0-----------------------------------------------||

(contined)
G|-------------------------------------------------------||
D|-------------------7--7--7--7--------------------------||
A|----------5--5--5--------------------------------------||
E|-------------------------------------------------------||
B|--0----0-------------------------3---3-----------------||


Pre-Chorus
G|-------------------------------------------------------||
D|-------------------------------------------------------||
A|-------------------------------------------------------||
E|--------------------------5--5--5--5--5----------------||
B|--5--5--5--5--5--5--5--5-------------------------------||


Chorus
G|-------------------------------------------------------||
D|-------------------------------------------------------||
A|-------------------------------------------------------||
E|--3---3------------5---5--5----------------------------||
B|----------3--3--3-------------5--5--5------------------||

(continued)
G|-------------------------------------------------------||
D|-------------------------------------------------------||
A|-------------------------------------------------------||
E|--3---3--3---5---5--5----------------5--5--5--5--------||
B|------------------------0--0--0--0---------------------||

(continued)
G|-------------------------------------------------------||
D|-------------------------------------------------------||
A|-------------------------------------------------------||
E|--3---3------------5---5--5----------------------------||
B|----------3--3--3-------------5--5--5------------------||

(continued)
G|-------------------------------------------------------||
D|-------------------------------------------------------||
A|-------------------------------------------------------||
E|--3---3--3---5---5--5----------------------------------||
B|------------------------0--0--0--0--0-0~---------------||


Outro
G|-------------------------------------------------------||
D|-------------------------------------------------------||
A|-------------------------------------------------------||
E|--3---3------------5---5--5----------------------------||
B|----------3--3--3-------------5--5--5------------------||

(continued)
G|-------------------------------------------------------||
D|-------------------------------------------------------||
A|-------------------------------------------------------||
E|--3---3--3---5---5--5----------------------------------||
B|------------------------5~-----------------------------||


Intro
Verse
Pre-Chorus
Chorus
Verse
Pre-Chorus
Chorus
Verse
Pre-Chorus
Chorus
Outro

---Believe It or Not - Luca Piccirilli---

Verse
g-------------------------------|
d-------------------------------| x4
a--------------------6666-------|
e-3333-153--33333333----6666----|

Pre-Chorus
G----------------------------------------------------------------|
D----------------------------------------------------------------|
A--------------------------------1-1-1-1-1-1-1-1-3-3-3-3-3-3-3-3-| x1
E1-1-1-1-1-1-1-1-3-3-3-3-3-3-3-3---------------------------------|

Chorus
g--------------------------|
d--------------------------| x2
a------6-66-6--------------|
e33-33--------66-66-8-88-8-|

Post-Chorus
G--------------------------------|
D--------------------------------|
A1-1-1-1-1-1-1-1-3-3-3-3-3-3-3-3-| x1
E--------------------------------|


Verse x6
Pre-Chorus x1
Chorus x4
Post Chorus x1
Verse x2
Break 2:12-2:29

Bridge
G--------------------------------------------|
D--------------------------------------------|
A1~----3~----1-1-1-1-1-1-1-1-3-3-3-3-3-3-3-3-| x1
E--------------------------------------------|

Chorus x2
Break 2:50-2:55
Verse x4
Pre-Chorus x1
Chorus x4
Post-Chorus x2
Verse x1

---Feelin Way Too Damn Good – Andrew Zara---

Intro - REST
G--------------------------------------------|
D--------------------------------------------|
A--------------------------------------------|
E--------------------------------------------|
B---—----------------------------------------|

Verse
G--------------------------------------------|
D--------------------------------------------|
A------2-1------2-1--------------------------|
E--------------------------------------------|
B-3—1-------3-1------------------------------|

Bridge
G--------------------------------------------|
D-3-5----------------------------------------|
A--------------------------------------------|
E-----3-3--------1-3-------------------------|
B----------------------3-----------3/15\3----|

Verse
G--------------------------------------------|
D--------------------------------------------|
A------2-1------2-1--------------------------|
E--------------------------------------------|
B-3—1-------3-1------------------------------|

Bridge
G--------------------------------------------|
D-3-5----------------------------------------|
A--------------------------------------------|
E-----3-3--------1-3-------------------------|
B----------------------3-3-3-3-3-3-3-3-------|

Chorus
G-------------------------------------------------|
D-------------------------------------------------|
A-1-1-1-1-----------------------------------------|
E---------1-1-1-1----------33-3-3-1-1-1-1-3-3-3-3-|
B-----------------1-1-1-11------------------------|

G--------------------------------------------------|
D-5-3----------------------------------------------|
A-----5-3-1------1-1-1-1---------------------------|
E-----------3-1----------1-1-1-1----------33333333-|
B--------------------------------1-1-1-11----------|

G--------------------------------------------|
D--------------------------------------------|
A--------------------------------------------|
E-1-1-1-1-3-3-3-3----------------------------|
B---—----------------------------------------|

Link
G--------------------------------------------|
D--------------------------------------------|
A-----------------2-2-2-2-1-1-1-1------------| X2
E--------------------------------------------|
B-3-3—3-3-1-1-1-1----------------------------|

Verse
G--------------------------------------------|
D--------------------------------------------|
A------2-1------2-1--------------------------|
E--------------------------------------------|
B-3—1-------3-1------------------------------|

Bridge
G--------------------------------------------|
D-3-5----------------------------------------|
A--------------------------------------------|
E-----3-3--------1-3-------------------------|
B----------------------3-3-3-3-3-3-3-3-------|

Chorus
G-------------------------------------------------|
D-------------------------------------------------|
A-1-1-1-1-----------------------------------------|
E---------1-1-1-1----------33-3-3-1-1-1-1-3-3-3-3-|
B-----------------1-1-1-11------------------------|

G--------------------------------------------------|
D-5-3----------------------------------------------|
A-----5-3-1------1-1-1-1---------------------------|
E-----------3-1----------1-1-1-1----------33333333-|
B--------------------------------1-1-1-11----------|

G--------------------------------------------|
D--------------------------------------------|
A--------------------------------------------|
E-1-1-1-1-3-3-3-3----------------------------|
B---—----------------------------------------|

Link
G--------------------------------------------|
D--------------------------------------------|
A-----------------2-2-2-2-1-1-1-1------------| X3
E--------------------------------------------|
B-3-3—3-3-1-1-1-1----------------------------|

G--------------------------------------------|
D--------------------------------------------|
A-----------------2-2-2-2-1~~~~--------------| X1
E--------------------------------------------|
B-3-3—3-3-1-1-1-1----------------------------|

No Bass

Verse
G--------------------------------------------|
D--------------------------------------------|
A------2-1------2-1--------------------------|
E--------------------------------------------|
B-3—1-------3-1------------------------------|

Bridge
G--------------------------------------------|
D-3-5----------------------------------------|
A--------------------------------------------|
E-----3-3--------1-3-------------------------|
B----------------------3-3-3-3-3-3-3-3-------|

Chorus
G-------------------------------------------------|
D-------------------------------------------------|
A-1-1-1-1-----------------------------------------|
E---------1-1-1-1----------33-3-3-1-1-1-1-3-3-3-3-|
B-----------------1-1-1-11------------------------|

G--------------------------------------------------|
D-5-3----------------------------------------------|
A-----5-3-1------1-1-1-1---------------------------|
E-----------3-1----------1-1-1-1----------33333333-|
B--------------------------------1-1-1-11----------|

G--------------------------------------------|
D--------------------------------------------|
A--------------------------------------------|
E-1-1-1-1-3-3-3-3----------------------------|
B---—----------------------------------------|

Link
G--------------------------------------------|
D--------------------------------------------|
A-----------------2-2-2-2-1-1-1-1------------| X2
E--------------------------------------------|
B-3-3—3-3-1-1-1-1----------------------------|

G---------------------------------------------|
D---------------------------------------------|
A-----------------2~~~~--1~~~~----------------| X1
E---------------------------------------------|
B-3-3—3-3-1-1-1-1-----------------------------|


---Because Of You – Andrew Zara---

Intro/Chorus. first only guitar and drums then:
G -----------------------------------------|
D -----------------------------------------|
A -----------------------------------------| 2x
E -----------------------------------------|
C -0003-0-0003-0-0003-0h3p0---5h0-4h0-3h5--|

Verse 8x    1x    8x
G --------|----|---------|
D --------|----|---------|
A --------|----|---------|
E --------|----|---------|
C -0-03/7-|-33-|-0-03/7--|

Chorus 2x

Pre Chorus
G ---------------------------------------|
D ---------------------------------------|
A ---------------------------------------| Listen for perfect timing
E ---------------------------------------|
C -8888-8888-5555-3333-8888888855553333--|

Chorus 2x
verse
Chorus 2x
Pre Chorus
Chorus 2x

Bridge  3x   1x                      1x
G ---------|--------|--------------------------------|
D ---------|--------|--------------------------------|
A ---------|--------|--------------------------------|
E -----567-|--------|----868-----x68----868----------|
C -023-----|-023530-|-023----023-----023----023--5sb-| sb: Slow Bend

Only Drums
start with verse In the second part with the 3's
Chorus 2x
Pre Chorus
Chorus 2x

Heavy end
G ---------------------------------------------|
D ---------------------------------------------|
A ---------------------------------------------|
E ---------------------------------------------|
C -003003003003003003333330030030030030030030--|
just listen for perfect timing and how many times you've to play the 003's but end with a

C --0-|


---Figured You Out - Nigel Vaillancourt----|
-------------------------------------------|Tuning: C-G-C-F

Verse
F|---------------------------------------------|
C|---------------------------------------------|
G|---------------------------------------------|
C|-0-0-0-0-0--0-0-0-0-0-0--0-3-3--3-3-3--3-3-3-|

F|--------------------------------------------------|
C|--------------------------------------------------|
G|--------------------------------------------------|
C|-3-3-3--3-5-5--5-5-5--5-5-5--5-5-5-5-0-0-0-0-0-0-0|


x2

Chorus 1
G|-------------------------------------------------------------------------------|
D|-------------------------------------------------------------------------------|
A|----------3-3-3-3-3-3-1-1-1-1--------------------------------------------------|
E|-0-0-0-0-----------------------3-0-0--0-0--0-0---------------------------------| x2

Chorus 2 is the same as chorus one but with an elongated open section

Bridge
G|--------------------------------------------------------------------------|
D|--------------------------------------------------------------------------|
A|--------------------------------------------------------------------------|
E|-0-0-3-0-3-5-x3--3-3--3-3--3-3--3-3--5-5--5-5--5-5-5-5--0-0-3-0-3-5-------|

Verse 3 is just bass and drums

Outro is the same as the bridge

Song Order:
Verse 1
Chorus 1
Verse 2
Chorus 2
Bridge
Verse 3
Chorus 3
Outro

| /  slide up
| \  slide down
| h  hammer-on
| p  pull-off
| ~  vibrato
| +  harmonic
| x  Mute note

---Should’ve Listened by Pipewrench---

Beginning


G-------------------------------------------------|
D--------0----------------------------------------|
A--2----------------0-----------------------------|
E-------------3------------0----------------------|


rest of song

G---------------------------------------------------------------------------|
D---------------------0--0-0---0--0-0---------------------------------------|
A--2--2-2---2--2-2----------------------------------0--0--00----------------|
E----------------------------------------3--3-3------------------0--0-0-0-0-|


---Another Hole in the Head by ridders7855---

Tuning E/A/D/G

Intro
G||--------------------------------||
D||--------------------------------||
A||-000-333-----333-555-333-----333|| x2
E||---------111-------------333----||

Verse
G||---------------------------------||
D||---------------------------------||
A||-00000000--------55555555--------|| x3
E||---------11111111--------33333333||

G||-----------------------||
D||-----------------------||
A||-00000000--------5555-5||
E||---------11111111------||

Chorus
G||--------------------------------||
D||--------------------------------||
A||-000-333-----333-555-333-----333|| x2
E||---------111-------------333----||

Verse 2
G||---------------------------------||
D||---------------------------------||
A||-00000000--------55555555--------|| x4
E||---------11111111--------33333333||

G||-----------------------||
D||-----------------------||
A||-00000000--------5555-5||
E||---------11111111------||

Chorus 2
G||--------------------------------||
D||--------------------------------||
A||-000-333-----333-555-333-----333|| x4
E||---------111-------------333----||

Bridge

G||--------------------------------||
D||--------------------------------||
A||-0-0-0-0-3-3-3-3-5-5-5-5--------|| x2
E||-------------------------3-3-3-3||

G||----------------------------------||
D||----------------------------------||
A||-0-0-0-0-3-3-3-3-5-5-5-5---------5||
E||------------------------33333333--||

Verse 3
G||---------------------------------||
D||---------------------------------||
A||-00000000--------55555555--------||
E||---------11111111--------33333333||

G||-----------------------||
D||-----------------------||
A||-00000000--------5555-5||
E||---------11111111------||

Chorus 3
G||--------------------------------||
D||--------------------------------||
A||-000-333-----333-555-333-----333|| x3
E||---------111-------------333----||

Outro
G||--------------------------------||
D||--------------------------------||
A||-0-0-0-0-3-3-3-3-5-5-5-5--------||
E||-------------------------3-3-3-3||

G||----------------------------------||
D||----------------------------------||
A||-0-0-0-0-3-3-3-3-5-5-5-5---------5||
E||-------------------------3-3-3-3--||


There it is!
Play On!
Suggest correction
Give kudos to tab author, rate the tab!
1 2 3 4 5
comments
print report bad tab
guest
You may want to rate the tab now too:
select rating
Wanna post a correction for this tab? Suggest correction