Oops, an error
Loading. Please wait.

Lullaby Acoustic tab

version 2
version 2

Whole song

Interactive

175 views 6 this week
no commentswrite comment
1 2 3 4 5
3 more votes to show rating
add to favorites
×
Save as Personal and add changes to this tab that will be seen only by you. Learn more ›
×
You can save this tab as Personal to edit and correct it or add notes. All changes will be seen only by you. Learn more »
launch autoscroll
font size
0
reset
how to read this tab
guitar tuner
edit
Autoscroll
slow
fast
+/-
esc
set tempo
stop
Lullaby(Acoustic) by Nickelback - https://www.youtube.com/watch?v=XKEVTTpvWjo
This tab is only for guitar

[Intro]
(Guitar 1)
   Am     C     G     D
e|--0--|--0--|--3--|--2--|
B|--1--|--1--|--3--|--3--|
G|--2--|--0--|--0--|--2--|  (x2)
D|--2--|--2--|--0--|--0--|
A|--0--|--3--|--2--|--x--|
E|--x--|--x--|--3--|--x--|
    
(Guitar 2) 
e|-----------------------------|
B|---3------7--------2------0--|
G|--4------7--------2------1---|  (x2)
D|-4------7--------2------2----|
A|-----------------------------|
E|-----------------------------|

[Verse 1]
(Only guitar 1)
(One Struming)
  Am     C     G     D
e|--0--|--0--|--3--|--2--|
B|--1--|--1--|--3--|--3--|
G|--2--|--0--|--0--|--2--|  
D|--2--|--2--|--0--|--0--|
A|--0--|--3--|--2--|--x--|
E|--x--|--x--|--3--|--x--|

                Am     C                G                     D
Well I know the feeling, of finding yourself stuck out on the ledge
                   Am     C                  G                    D
And there ain't no healing, from cutting yourself with the jagged edge

(Guitar 1)
(One Strumming)
                Am                    C                 G                                 D
I'm telling you that, it's never that bad, take it from someone who's been where you're at
          Am                C                        G            D
Lay there on the floor, and you're not sure, you can take this anymore

(Guitar 2)
e|-----------------------------|
B|---3------7--------2------0--|
G|--4------7--------2------1---|
D|-4------7--------2------2----|
A|-----------------------------|
E|-----------------------------|

e|----------------------------|
B|---3------7--------2--------|
G|--4------7--------2---------|
D|-4------7--------2----------|
A|----------------------------|
E|----------------------------|

[Chorus]
(Guitar 1,2)
  Am     C     G     D
e|--0--|--0--|--3--|--2--|
B|--1--|--1--|--3--|--3--|
G|--2--|--0--|--0--|--2--|  
D|--2--|--2--|--0--|--0--|
A|--0--|--3--|--2--|--x--|
E|--x--|--x--|--3--|--x--|

                Am                C           G                   D
So just give it one more try to a lullaby and turn this up on the radio
           Am              C               G                        D
If you can hear me now i'm reaching out to let you know that you're not alone
       Am                 C                        G                      D
And if you can't tell i'm scared as hell because i can't reach you on the telephone
        C          C          D        D
So just close your eyes

(Guitar 1)
                     Am       C      G     D
Honey here comes a lullaby
              Am        C        G        D
Your very own lullaby

(Guitar 2)
e|-----------------------------|
B|---3------7--------2------0--|
G|--4------7--------2------1---|
D|-4------7--------2------2----|
A|-----------------------------|
E|-----------------------------|

[Verse 2]
(Guitar 1) 
(One Strumming)
  Am     C     G     D
e|--0--|--0--|--3--|--2--|
B|--1--|--1--|--3--|--3--|
G|--2--|--0--|--0--|--2--|  
D|--2--|--2--|--0--|--0--|
A|--0--|--3--|--2--|--x--|
E|--x--|--x--|--3--|--x--|

                   Am       C           G                     D
Well please let me take you, out of the darkness and into the light
             Am           C                  G                       D
Cause I have faith in you, that you're gonna make it through another night
               Am                 C                       G               D          
Stop thinking about, the easy way out, there's no need to go and blow the candle out
               Am               C                      G              D
Because you're not done, you're far too young, and the best is yet to come

(Guitar 2)
e|-----------------------------|
B|---3------7--------2------0--|
G|--4------7--------2------1---| (x3)
D|-4------7--------2------2----|
A|-----------------------------|
E|-----------------------------|

e|----------------------------|
B|---3------7--------2--------|
G|--4------7--------2---------|  (x1)
D|-4------7--------2----------|
A|----------------------------|
E|----------------------------|

[Chorus]
(Guitar 1,2)
  Am     C     G     D
e|--0--|--0--|--3--|--2--|
B|--1--|--1--|--3--|--3--|
G|--2--|--0--|--0--|--2--|  
D|--2--|--2--|--0--|--0--|
A|--0--|--3--|--2--|--x--|
E|--x--|--x--|--3--|--x--|

                Am                C           G                   D
So just give it one more try to a lullaby and turn this up on the radio
           Am              C               G                        D
If you can hear me now i'm reaching out to let you know that you're not alone
       Am                 C                        G                      D
And if you can't tell i'm scared as hell because i can't reach you on the telephone
        C          C          D        D
So just close your eyes

(Guitar 1)
                     Am       C      G     D
Honey here comes a lullaby
              Am        C        G        D
Your very own lullaby

(Guitar 2)
e|-----------------------------|
B|---3------7--------2------0--|
G|--4------7--------2------1---|
D|-4------7--------2------2----|
A|-----------------------------|
E|-----------------------------|

[Bridge]
(Only Guitar 1) 
(One Strumming)
  Em      G     D
e|--0--|--3--|--2--|
B|--0--|--3--|--3--|
G|--0--|--0--|--2--|  
D|--2--|--0--|--0--|
A|--2--|--2--|--x--|
E|--0--|--3--|--x--|

G                               Em                              C
Well everybody's hit the bottom, and everybody's been forgotten, when 
                                G
everybody's tired of being alone                        
                                Em                              C
yeah everybody's been abandoned, and left a little empty handed
                                        G
so if you're out there barely hanging on

[Chorus]
(Guitar 1,2)
  Am     C     G     D
e|--0--|--0--|--3--|--2--|
B|--1--|--1--|--3--|--3--|
G|--2--|--0--|--0--|--2--|  
D|--2--|--2--|--0--|--0--|
A|--0--|--3--|--2--|--x--|
E|--x--|--x--|--3--|--x--|

                Am                C           G                   D
So just give it one more try to a lullaby and turn this up on the radio
           Am              C               G                        D
If you can hear me now i'm reaching out to let you know that you're not alone
       Am                 C                        G                      D
And if you can't tell i'm scared as hell because i can't reach you on the telephone
        C          C          D        D
So just close your eyes

(Guitar 1)
                     Am       C      G     D
Honey here comes a lullaby
              Am        C(One Strumming)     G(One Strumming)    D(One Strumming)
Your very own lullaby

(Guitar 2)
e|-----------------------------|
B|---3------7--------2------0--|
G|--4------7--------2------1---|
D|-4------7--------2------2----|
A|-----------------------------|
E|-----------------------------|
    

************************************

| x  Dead note

************************************

            
            
Suggest correction
Creating personal tab
Creating personal tab
You can edit any tab online and save it as your Personal.

You can edit, replace or remove any tab part or add personal notes – all changes will be seen only by you.

Personal tabs can be accessed anytime from any device, even offline.
Learn more »
Give kudos to tab author, rate the tab!
1 2 3 4 5
comments
print report bad tab
guest
You may want to rate the tab now too:
select rating
Wanna post a correction for this tab? Suggest correction