Oops, an error
Loading. Please wait.
We have Chord Pro version of Must Be Nice.
It's the closest thing you can get to the original song and it has interactive parts. Check out the tab »
×

Must Be Nice tab

version 1
version 1

Whole song

Interactive

2,060 views 39 this week
2 commentsread comments
1 2 3 4 5
x 3
add to favorites
×
Save as Personal and add changes to this tab that will be seen only by you. Learn more ›
×
You can save this tab as Personal to edit and correct it or add notes. All changes will be seen only by you. Learn more »
launch autoscroll
font size
0
reset
how to read this tab
guitar tuner
edit
Autoscroll
slow
fast
+/-
esc
set tempo
stop
Nickelback - Must Be Nice
Drop D
98 BPM
Basic rhyhtm guitar draft

Listen to the song for the correct slide rhyhtm/tonation. They don't slide up to a specific note, they just
use the slide-up sound effect as a filler note for the two notes that follow. 

Check this cover if you have difficulties figuring out the riff:
https://www.youtube.com/watch?v=UvbxFfId2-w (Credits to ChrisCoversMusic)

[Intro / main riff]

e|---------------|-----------------------------------------------------------|
B|---------------|-----------------------------------------------------------|
G|---------------|-----------------------------------------------------------|
D|---------------|---------------------------------5---3---5-----------------|
A|--x-x-x-x-x-x--|---------------------------------3---3---5-----------------|
D|--x-x-x-x-x-x--|--0/12-10--0/12-15--0/17-15--0~------3---5-----------------|


e|-----------------------------------------------------------|
B|-----------------------------------------------------------|
G|-----------------------------------------------------------|
D|---------------------------------5---5---3-----------------|
A|---------------------------------3---5---3-----------------|
D|--0/12-10--0/12-15--0/17-15--0~------5---3-----------------|


[Verse 1]

e|---------------------------------------------------------------------------|
B|---------------------------------------------------------------------------|
G|---------------------------------------------------------------------------|
D|--------------------------------10-12--3--3/5\3-----------3--3/5\3---------|
A|--------------------------------10-12--3--3/5\3-----------3--3/5\3---------|
D|--0/17-15--0/10-12-10--0/17-15--10-12--3--3/5\3-----------3--3/5\3---------|
PM                                       *                  *

[Chorus 1]

e|---------------------------------------------------------------------------|
B|---------------------------------------------------------------------------|
G|--------5-5-5-----------7-7-7-7-x-7-7-7-7-7-7------------------------------|
D|--5--5--5-5-5--3-x-3-0--x-x-x-x-x-x-x-x-x-x-x--3/5\3-----------------------|
A|--5--5--3-3-3--3-x-3-0--5-5-5-5-x-5-5-5-5-5-5--3/5\3-----------------------|
D|--5--5---------3-x-3-0-------------------------3/5\3-----------------------|

e|---------------------------------------------------------------------------|
B|---------------------------------------------------------------------------|
G|--------5-5-5-----------7-7-7-7-x-7-7-7-7-7-7------------------------------|
D|--5--5--5-5-5--3-x-3-0--x-x-x-x-x-x-x-x-x-x-x--3/5\3-----------------------|
A|--5--5--3-3-3--3-x-3-0--5-5-5-5-x-5-5-5-5-5-5--3/5\3-----------------------|
D|--5--5---------3-x-3-0-------------------------3/5\3-----------------------|

e|---------------------------------------------------------------------------|
B|---------------------------------------------------------------------------|
G|--------5-5-5-----------7-7-7-7-x-7-7-7-7-7-7------------------------------|
D|--5--5--5-5-5--3-x-3-0--x-x-x-x-x-x-x-x-x-x-x--3/5\3-----------------------|
A|--5--5--3-3-3--3-x-3-0--5-5-5-5-x-5-5-5-5-5-5--3/5\3-----------------------|
D|--5--5---------3-x-3-0-------------------------3/5\3-----------------------|


e|---------------------------------------------------------------------------|
B|---------------------------------------------------------------------------|
G|-----------5-5-5-----------------------------------------------------------|
D|--3-3-3-3--5-5-5--5-x-5--5-5-5-5-------------------------------------------|
A|--3-3-3-3--3-3-3--5-x-5--5-5-5-5-------------------------------------------|
D|--3-3-3-3---------5-x-5--5-5-5-5-------------------------------------------|

[Main riff] 

e|-----------------------------------------------------------|
B|-----------------------------------------------------------|
G|-----------------------------------------------------------|
D|---------------------------------5---3---5-----------------|
A|---------------------------------3---3---5-----------------|
D|--0/12-10--0/12-15--0/17-15--0~------3---5-----------------|

e|-----------------------------------------------------------|
B|-----------------------------------------------------------|
G|-----------------------------------------------------------|
D|---------------------------------5---5---3-----------------|
A|---------------------------------3---5---3-----------------|
D|--0/12-10--0/12-15--0/17-15--0~------5---3-----------------|

[Verse 2]

e|---------------------------------------------------------------------------|
B|---------------------------------------------------------------------------|
G|---------------------------------------------------------------------------|
D|--------------------------------10-12--3--3/5\3-----------3--3/5\3---------|
A|--------------------------------10-12--3--3/5\3-----------3--3/5\3---------|
D|--0/17-15--0/10-12-10--0/17-15--10-12--3--3/5\3-----------3--3/5\3---------|
PM                                       *                  *

During verse 2 a second guitar plays C octaves in the same rhythmic pattern as the chorus.

[Chorus 2]

e|---------------------------------------------------------------------------|
B|---------------------------------------------------------------------------|
G|--------5-5-5-----------7-7-7-7-x-7-7-7-7-7-7------------------------------|
D|--5--5--5-5-5--3-x-3-0--x-x-x-x-x-x-x-x-x-x-x--3/5\3-----------------------|
A|--5--5--3-3-3--3-x-3-0--5-5-5-5-x-5-5-5-5-5-5--3/5\3-----------------------|
D|--5--5---------3-x-3-0-------------------------3/5\3-----------------------|

e|---------------------------------------------------------------------------|
B|---------------------------------------------------------------------------|
G|--------5-5-5-----------7-7-7-7-x-7-7-7-7-7-7------------------------------|
D|--5--5--5-5-5--3-x-3-0--x-x-x-x-x-x-x-x-x-x-x--3/5\3-----------------------|
A|--5--5--3-3-3--3-x-3-0--5-5-5-5-x-5-5-5-5-5-5--3/5\3-----------------------|
D|--5--5---------3-x-3-0-------------------------3/5\3-----------------------|

e|---------------------------------------------------------------------------|
B|---------------------------------------------------------------------------|
G|--------5-5-5-----------7-7-7-7-x-7-7-7-7-7-7------------------------------|
D|--5--5--5-5-5--3-x-3-0--x-x-x-x-x-x-x-x-x-x-x--3/5\3-----------------------|
A|--5--5--3-3-3--3-x-3-0--5-5-5-5-x-5-5-5-5-5-5--3/5\3-----------------------|
D|--5--5---------3-x-3-0-------------------------3/5\3-----------------------|


e|---------------------------------------------------------------------------|
B|---------------------------------------------------------------------------|
G|-----------5-5-5-----------------------------------------------------------|
D|--3-3-3-3--5-5-5--5-x-5--5-5-5-5-------------------------------------------|
A|--3-3-3-3--3-3-3--5-x-5--5-5-5-5-------------------------------------------|
D|--3-3-3-3---------5-x-5--5-5-5-5-------------------------------------------|

[Main riff]

e|-----------------------------------------------------------|
B|-----------------------------------------------------------|
G|-----------------------------------------------------------|
D|---------------------------------5---3---5-----------------|
A|---------------------------------3---3---5-----------------|
D|--0/12-10--0/12-15--0/17-15--0~------3---5-----------------|

e|-----------------------------------------------------------|
B|-----------------------------------------------------------|
G|-----------------------------------------------------------|
D|---------------------------------5---5---3-----------------|
A|---------------------------------3---5---3-----------------|
D|--0/12-10--0/12-15--0/17-15--0~------5---3-----------------|

[Chorus 3]

e|---------------------------------------------------------------------------|
B|---------------------------------------------------------------------------|
G|-------------------------7-7--7-7-7-7-x-7-7-7-7-7-7------------------------|
D|--10\--------------------x-x--x-x-x-x-x-x-x-x-x-x-x--3/5\3-----------------|
A|--10\----------------3-5-5-5--5-5-5-5-x-5-5-5-5-5-5--3/5\3-----------------|
D|--10\--silence--3--5---------------------------------3/5\3-----------------|

e|---------------------------------------------------------------------------|
B|---------------------------------------------------------------------------|
G|--------5-5-5-----------7-7-7-7-x-7-7-7-7-7-7------------------------------|
D|--5--5--5-5-5--3-x-3-0--x-x-x-x-x-x-x-x-x-x-x--3/5\3-----------------------|
A|--5--5--3-3-3--3-x-3-0--5-5-5-5-x-5-5-5-5-5-5--3/5\3-----------------------|
D|--5--5---------3-x-3-0-------------------------3/5\3-----------------------|

e|---------------------------------------------------------------------------|
B|---------------------------------------------------------------------------|
G|--------5-5-5-----------7-7-7-7-x-7-7-7-7-7-7------------------------------|
D|--5--5--5-5-5--3-x-3-0--x-x-x-x-x-x-x-x-x-x-x--3/5\3-----------------------|
A|--5--5--3-3-3--3-x-3-0--5-5-5-5-x-5-5-5-5-5-5--3/5\3-----------------------|
D|--5--5---------3-x-3-0-------------------------3/5\3-----------------------|

e|---------------------------------------------------------------------------|
B|---------------------------------------------------------------------------|
G|-----------5-5-5-----------------------------------------------------------|
D|--3-3-3-3--5-5-5--5-x-5--5-5-5-5-------------------------------------------|
A|--3-3-3-3--3-3-3--5-x-5--5-5-5-5-------------------------------------------|
D|--3-3-3-3---------5-x-5--5-5-5-5-------------------------------------------|

[Chorus 4]

e|---------------------------------------------------------------------------|
B|---------------------------------------------------------------------------|
G|--------5-5-5-----------7-7-7-7-x-7-7-7-7-7-7------------------------------|
D|--5--5--5-5-5--3-x-3-0--x-x-x-x-x-x-x-x-x-x-x--3/5\3-----------------------|
A|--5--5--3-3-3--3-x-3-0--5-5-5-5-x-5-5-5-5-5-5--3/5\3-----------------------|
D|--5--5---------3-x-3-0-------------------------3/5\3-----------------------|

e|---------------------------------------------------------------------------|
B|---------------------------------------------------------------------------|
G|--------5-5-5-----------7-7-7-7-x-7-7-7-7-7-7------------------------------|
D|--5--5--5-5-5--3-x-3-0--x-x-x-x-x-x-x-x-x-x-x--3/5\3-----------------------|
A|--5--5--3-3-3--3-x-3-0--5-5-5-5-x-5-5-5-5-5-5--3/5\3-----------------------|
D|--5--5---------3-x-3-0-------------------------3/5\3-----------------------|

e|---------------------------------------------------------------------------|
B|---------------------------------------------------------------------------|
G|--------5-5-5-----------7-7-7-7-x-7-7-7-7-7-7------------------------------|
D|--5--5--5-5-5--3-x-3-0--x-x-x-x-x-x-x-x-x-x-x--3/5\3-----------------------|
A|--5--5--3-3-3--3-x-3-0--5-5-5-5-x-5-5-5-5-5-5--3/5\3-----------------------|
D|--5--5---------3-x-3-0-------------------------3/5\3-----------------------|

e|---------------------------------------------------------------------------|
B|---------------------------------------------------------------------------|
G|-----------5-5-5-----------------------------------------------------------|
D|--3-3-3-3--5-5-5--5-x-5--5-5-5-5-------------------------------------------|
A|--3-3-3-3--3-3-3--5-x-5--5-5-5-5-------------------------------------------|
D|--3-3-3-3---------5-x-5--5-5-5-5-------------------------------------------|

[Outro]

e|-----------------------------------------------------------|
B|-----------------------------------------------------------|
G|-----------------------------------------------------------|
D|---------------------------------5---3---5-----------------|
A|---------------------------------3---3---5-----------------|
D|--0/12-10--0/12-15--0/17-15--0~------3---5-----------------|

e|-----------------------------------------------------------|
B|-----------------------------------------------------------|
G|-----------------------------------------------------------|
D|---------------------------------5---5---3-----------------|
A|---------------------------------3---5---3-----------------|
D|--0/12-10--0/12-15--0/17-15--0~------5---3-----------------|

e|-----------------------------------------------------------|
B|-----------------------------------------------------------|
G|-----------------------------------------------------------|
D|---------------------------------5---3---5-----------------|
A|---------------------------------3---3---5-----------------|
D|--0/12-10--0/12-15--0/17-15--0~------3---5-----------------|

e|-----------------------------------------------------------|
B|-----------------------------------------------------------|
G|-----------------------------------------------------------|
D|---------------------------------5---5---3-----------------|
A|---------------------------------3---5---3-----------------|
D|--0/12-10--0/12-15--0/17-15--0~------5---3-----------------|


************************************

| x   Dead note
| /   Slide up
| \   Slide down
| ~   Ring out
| PM  Palm mute

************************************

            
            
Suggest correction
Creating personal tab
Creating personal tab
You can edit any tab online and save it as your Personal.

You can edit, replace or remove any tab part or add personal notes – all changes will be seen only by you.

Personal tabs can be accessed anytime from any device, even offline.
Learn more »
Give kudos to tab author, rate the tab!
1 2 3 4 5
comments
print report bad tab
2 comments total.
0 reply
kingcaleb32321 10 Jun 19, 2017 11:53 AM

This is an amazing tab thank you for making it but in the 1st and 2nd verses, instead of "0/10 12 10" I believe it should be "0/12 10 12" Hope this helps!

0 reply
tactical_fork 10 Jun 20, 2017 11:57 AM

I would like to see the solo at some point. Mind updating?

guest
You may want to rate the tab now too:
select rating
Wanna post a correction for this tab? Suggest correction