Oops, an error
Loading. Please wait.

Must Be Nice tab

version 2
version 2

Whole song

Interactive

247 views 9 this week
no commentswrite comment
1 2 3 4 5
3 more votes to show rating
add to favorites
×
Save as Personal and add changes to this tab that will be seen only by you. Learn more ›
×
You can save this tab as Personal to edit and correct it or add notes. All changes will be seen only by you. Learn more »
launch autoscroll
font size
0
reset
how to read this tab
guitar tuner
edit
Autoscroll
slow
fast
+/-
esc
set tempo
stop
[Intro]
(Part 1)
e|---------------------------------------------------------------------------|
B|---------------------------------------------------------------------------|
G|---------------------------------------------------------------------------|
D|-------------------------7-------------------------------------------------|
A|-------------------------8--------10-8-------------------------------------|
D|--0-/10-12-10---0-/10-12----0-/10-------0-/10-3-5--------------------------|

e|---------------------------------------------------------------------------|
B|---------------------------------------------------------------------------|
G|---------------------------------------------------------------------------|
D|--------------------------7----------------10-10-10-10-10-10---------------|
A|--------------------------8--------10-8----10-10-10-10-10-10---------------|
D|---0-/10-12-10---0-/10-12----0-/10-------0-10-10-10-10-10-10---------------|

(Part 2)
e|---------------------------------------------------------------------------|
B|---------------------------------------------------------------------------|
G|---------------------------------------------------------------------------|
D|-------------------------7----------------10-------------------------------|
A|-------------------------8--------10-8----10-------------------------------|
D|--0-/10-12-10---0-/10-12----0-/10-------0-10-3-5---------------------------|

e|---------------------------------------------------------------------------|
B|---------------------------------------------------------------------------|
G|---------------------------------------------------------------------------|
D|-------------------------7----------------10-------------------------------|
A|-------------------------8--------10-8----10-------------------------------|
D|--0-/10-12-10---0-/10-12----0-/10-------0-10-5-3---------------------------|

[Verse 1] 
(0:29)
e|---------------------------------------------------------------------------|
B|---------------------------------------------------------------------------|
G|---------------------------------------------------------------------------|
D|------------------------------------5-7--0PM-5-3---------------------------|
A|--------8~----------------------8---3-5--0PM-5-3---------------------------|
D|--0-/12-----0-/12-10-12---0-/12----------0PM-5-3---------------------------|

(0:38)
e|---------------------------------------------------------------------------|
B|---------------------------------------------------------------------------|
G|---------------------------------------------------------------------------|
D|---3PM-7-5-----------------------------------------------------------------|
A|---3PM-5-3-----------------------------------------------------------------|
D|---3PM---------------------------------------------------------------------|

[Chorus]
(Guitar 1)
e|---------------------------------------------------------------------------|
B|---------------------------------------------------------------------------|
G|-----------5-5-5-5-5-------------------------------------------------------|
D|--5-5-5-5--5-5-5-5-5-3-3-0------0-0-0-0--0-0-0-0---0--/5-3-----------------| (Repeat 3 times)
A|--5-5-5-5--3-3-3-3-3-3-3-0------0-0-0-0--0-0-0-0---0--/5-3-----------------|
D|--5-5-5-5------------3-3-0------0-0-0-0--0-0-0-0---0--/5-3-----------------|

(Guitar 2)
e|---------------------------------------------------------------------------|
B|-----------------------------------------------------/12-10----------------|
G|-------------------------------7-7-5-7--7-7-7-7-7-5--/12-10----------------|
D|-------------------------------x-x-x-x--x-x-x-x-x-x------------------------|  
A|-------------------------------5-5-5-5--5-5-5-5-5-5------------------------|
D|---------------------------------------------------------------------------|

e|---------------------------------------------------------------------------|
B|---------------------------------------------------------------------------|
G|--------------5-5-5-5------------------------------------------------------|
D|--3-3-3-3--x--5-5-5-5--5-5\------------------------------------------------|
A|--3-3-3-3--x--3-3-3-3--5-5\------------------------------------------------|
D|--3-3-3-3--x-----------5-5\------------------------------------------------|

[Instrumental]
e|---------------------------------------------------------------------------|
B|---------------------------------------------------------------------------|
G|---------------------------------------------------------------------------|
D|-------------------------7----------------10-------------------------------|
A|-------------------------8--------10-8----10-------------------------------|
D|--0-/10-12-10---0-/10-12----0-/10-------0-10-3-5---------------------------|

e|---------------------------------------------------------------------------|
B|---------------------------------------------------------------------------|
G|---------------------------------------------------------------------------|
D|-------------------------7----------------10-------------------------------|
A|-------------------------8--------10-8----10-------------------------------|
D|--0-/10-12-10---0-/10-12----0-/10-------0-10-5-3---------------------------|

[Verse 2] 
(The rhytmn for this section was very hard to hear so it is probaly not quite right)
e|---------------------------------------------------------------------------|
B|---------------------------------------------------------------------------|
G|---------------------------------------------------------------------------|
D|--0-x-0-0-x-0-0-x-0-0-x-0-0-0-0-0---0-x-0-0-x-0-0-0--3PM-7-5---------------|
A|-----------------------------------------------------3PM-5-3---------------|
D|-----------------------------------------------------3PM-------------------|

e|---------------------------------------------------------------------------|
B|---------------------------------------------------------------------------|
G|---------------------------------------------------------------------------|
D|--0-x-0-0-x-0-0-x-0-0-x-0-0-0-0-0---0-x-0-0-x-0-0-0--/5-3------------------|
A|---------------------------------------------------------------------------|
D|---------------------------------------------------------------------------|

e|---------------------------------------------------------------------------|
B|---------------------------------------------------------------------------|
G|---------------------------------------------------------------------------|
D|------------------------------------5-7--0PM-5-3---------------------------|
A|--------8~----------------------8---3-5--0PM-5-3---------------------------|
D|--0-/12-----0-/12-10-12---0-/12----------0PM-5-3---------------------------|

e|---------------------------------------------------------------------------|
B|---------------------------------------------------------------------------|
G|---------------------------------------------------------------------------|
D|--0-x-0-0-x-0-0-x-0-0-x-0-0-0-0-0---0-x-0-0-x-0-0-0--/5-3------------------|
A|---------------------------------------------------------------------------|
D|---------------------------------------------------------------------------|

e|---------------------------------------------------------------------------|
B|---------------------------------------------------------------------------|
G|---------------------------------------------------------------------------|
D|--0-x-0-0-x-0-0-x-0-0-x-0-0-0-0-0---0-x-0-0-x-0-0-0--/5-3------------------|
A|---------------------------------------------------------------------------|
D|---------------------------------------------------------------------------|

[Chorus]
(Guitar 1)
e|---------------------------------------------------------------------------|
B|---------------------------------------------------------------------------|
G|-----------5-5-5-5-5-------------------------------------------------------|
D|--5-5-5-5--5-5-5-5-5-3-3-0------0-0-0-0--0-0-0-0---0--/5-3-----------------| (Repeat 3 times)
A|--5-5-5-5--3-3-3-3-3-3-3-0------0-0-0-0--0-0-0-0---0--/5-3-----------------|
D|--5-5-5-5------------3-3-0------0-0-0-0--0-0-0-0---0--/5-3-----------------|

(Guitar 2)
e|---------------------------------------------------------------------------|
B|-----------------------------------------------------/12-10----------------|
G|-------------------------------7-7-5-7--7-7-7-7-7-5--/12-10----------------|
D|-------------------------------x-x-x-x--x-x-x-x-x-x------------------------|  
A|-------------------------------5-5-5-5--5-5-5-5-5-5------------------------|
D|---------------------------------------------------------------------------|

e|---------------------------------------------------------------------------|
B|---------------------------------------------------------------------------|
G|--------------5-5-5-5------------------------------------------------------|
D|--3-3-3-3--x--5-5-5-5--5-5\------------------------------------------------|
A|--3-3-3-3--x--3-3-3-3--5-5\------------------------------------------------|
D|--3-3-3-3--x-----------5-5\------------------------------------------------| 

[Instrumental]
e|---------------------------------------------------------------------------|
B|---------------------------------------------------------------------------|
G|---------------------------------------------------------------------------|
D|-------------------------7----------------10-------------------------------|
A|-------------------------8--------10-8----10-------------------------------|
D|--0-/10-12-10---0-/10-12----0-/10-------0-10-3-5---------------------------|

e|---------------------------------------------------------------------------|
B|---------------------------------------------------------------------------|
G|---------------------------------------------------------------------------|
D|-------------------------7----------------10-------------------------------|
A|-------------------------8--------10-8----10-------------------------------|
D|--0-/10-12-10---0-/10-12----0-/10-------0-10-5-3---------------------------|

[Pre-solo]
e|---------------------------------------------------------------------------|
B|---------------------------------------------------------------------------|
G|-7PM---------10---------14--------19---------------------------------------|
D|-xPM-X16-----x---X16----x---X16---x---X16----------------------------------|
A|-5PM---------8----------12--------17---------------------------------------|
D|---------------------------------------------------------------------------|

[Solo] 
(Wah Wah pedal used)
(Not really too sure about this section either but its something like this)
e|---------------------------------------------------------------------------|
B|---------------------------------------------------------------------------|
G|------------------------------------------------------------10-------------|
D|---------------------------------------10-----12p10---10h12---12p10h12p10--|
A|--------8h10p8--10h12p10p8--8--10h11h12--12p10-----12----------------------|
D|---10h12------12----------12-----------------------------------------------|

e|---------------------------------------10----------------------------------|
B|---------------------------10h13p10-10-13b15-------------------------------|
G|-10-12p10---10--------12h13------------------------------------------------|
D|---------12----12p10-------------------------------------------------------|
A|---------------------------------------------------------------------------|
D|---------------------------------------------------------------------------|

e|--------13-----------------------------------------------------------------|
B|--13b15----13b15-pr13br10------------------------------13------------------|
G|--------------------------12-10-12b14-10~---12-10-12b14--12b14--br12-10----|
D|---------------------------------------------------------------------------|
A|---------------------------------------------------------------------------|
D|---------------------------------------------------------------------------|

e|---------------------------------------------------------------13p10-------|
B|---------------------------------------------------------------------13p10-|
G|------10--------------------------------10----10h12p10~---12b14------------|
D|-12-10--12~------------10----10-12-10-12----12-----------------------------|
A|----------------10-12----12------------------------------------------------|
D|---------------------------------------------------------------------------|

e|---------------15b17-13----15b17----13-------10----10----10----10----10----|
B|--------------------------------------15~----13b15-13b15-13b15-13b15-13b15-|
G|--12p10h12/14--------------------------------------------------------------|
D|---------------------------------------------------------------------------|
A|---------------------------------------------------------------------------|
D|---------------------------------------------------------------------------|

(After Solo there is a very quite guitar section which is just a D note being played)

[Chorus] (x2)
e|---------------------------------------------------------------------------|
B|----------------------------------------/12-10-----------------------------|
G|-----------------7-7-5-7--7-7-7-7-7-5---/12-10-----------------------------|
D|-10\-------------x-x-x-x--x-x-x-x-x-x--------------------------------------|
A|-10\-----0h3h5---5-5-5-5--5-5-5-5-5-5--------------------------------------|
D|-10\---3-------------------------------------------------------------------|

e|---------------------------------------------------------------------------|
B|----------------------------------------------------/12-10-----------------|
G|-----------5-5-5-5-5----------7-7-5-7--7-7-7-7-7-5--/12-10-----------------|
D|--5-5-5-5--5-5-5-5-5--3-3-----x-x-x-x--x-x-x-x-x-x-------------------------|
A|--5-5-5-5--3-3-3-3-3--3-3-----5-5-5-5--5-5-5-5-5-5-------------------------|
D|--5-5-5-5-------------3-3--------------------------------------------------|

e|---------------------------------------------------------------------------|
B|----------------------------------------------------/12-10-----------------|
G|-----------5-5-5-5-5----------7-7-5-7--7-7-7-7-7-5--/12-10-----------------|
D|--5-5-5-5--5-5-5-5-5--3-3-----x-x-x-x--x-x-x-x-x-x-------------------------|
A|--5-5-5-5--3-3-3-3-3--3-3-----5-5-5-5--5-5-5-5-5-5-------------------------|
D|--5-5-5-5-------------3-3--------------------------------------------------|

e|---------------------------------------------------------------------------|
B|---------------------------------------------------------------------------|
G|-----------5-5-5-5-5-------------------------------------------------------|
D|--3-3-3-3--5-5-5-5-5-5-5---------------------------------------------------|
A|--3-3-3-3--3-3-3-3-3-5-5---------------------------------------------------|
D|--3-3-3-3------------5-5---------------------------------------------------|

[Outro]
e|---------------------------------------------------------------------------|
B|---12b---------------------------------------------------------------------|
G|---12b---10~---12-10-12b14br12-10----------10~----------10--10-------------|
D|----------------------------------12~------------12p10--------12p10h12p10--|
A|------------------------------------------------------12-------------------|
D|---------------------------------------------------------------------------|

e|---------------------------------------------------------------------------|
B|---------------------------------------------10----------------------------|
G|--10--------------------------------------------13p12p10----12b14-10-------|
D|-----12~-----------------------12-10----12---------------12----------------|
A|-------------------------------------12------------------------------------|
D|---------------------------------------------------------------------------|

e|---8---------10----------13--------15----------15b17--13p10----------------|
B|---11b13-----13b15--x5---16b18-x5--18b20-x5--------------------------------|
G|---------------------------------------------------------------------------|
D|---------------------------------------------------------------------------|
A|---------------------------------------------------------------------------|
D|---------------------------------------------------------------------------|

e|---------------------------------------------------------------------------|
B|--10-------13p10--10------13p10--10------13p10--10------13p10--10----------|
G|----12p10-------12--12p10------12--12p10------12--12p10------12--12p10-----|
D|---------------------------------------------------------------------------|
A|---------------------------------------------------------------------------|
D|---------------------------------------------------------------------------|

e|---13p10--10------13p10--10------13p10--10------13p10--10------------------|
B|--------13--13p10------13--13p10------13--13p10------13--13p10-------------|
G----------------------------------------------------------------------------|
D|---------------------------------------------------------------------------|
A|---------------------------------------------------------------------------|
D|---------------------------------------------------------------------------|

e|---15p10--10------15p10--10------15p10--10------15p10--10------------------|
B|--------13--13p10------13--13p10------13--13p10------13--13p10-------------|
G----------------------------------------------------------------------------|
D|---------------------------------------------------------------------------|
A|---------------------------------------------------------------------------|
D|---------------------------------------------------------------------------|

e|---10----------------------------------------------------------------------|
B|---13b15-x8--/12-12-10-12--------------------------------------------------|
G--------------/12-12-10-12-10\----------------------------------------------|
D|---------------------------------------------------------------------------|
A|---------------------------------------------------------------------------|
D|---------------------------------------------------------------------------|


************************************

| /   Slide up
| ~   Vibrato
| x   Dead note
| \   Slide down
| h   Hammer-on
| p   Pull-off
| b   Bend
| br  Bend release

************************************

            
            
Suggest correction
Creating personal tab
Creating personal tab
You can edit any tab online and save it as your Personal.

You can edit, replace or remove any tab part or add personal notes – all changes will be seen only by you.

Personal tabs can be accessed anytime from any device, even offline.
Learn more »
Give kudos to tab author, rate the tab!
1 2 3 4 5
comments
print report bad tab
guest
You may want to rate the tab now too:
select rating
Wanna post a correction for this tab? Suggest correction