Oops, an error
Loading. Please wait.

Never Again Bass Tab

version 3
version 3

Whole song

Interactive

5,699 views 1 this week
4 commentsread comments
1 2 3 4 5
worth learning
x 4
add to favorites
launch autoscroll
font size
0
reset
guitar tuner
Autoscroll
slow
fast
+/-
esc
set tempo
stop
Help us to improve Ultimate-Guitar.com Take our survey!
×
Difficulty
Tuning
intermediate
D A D G B E
Never Again Bass Tab by Nickelback

Intro
G---------------------------------------------------------|-|
D---------------------------------------------------------|-|
A---------------------------------------------------------|-|
D----0-0-0-0-0-0-0-0-0-0-0-0-0----3-3-3-(5)---------------|-|


G---------------------------------------------------------|-|
D---------------------------------------------------------|-|
A---------------------------------------------------------|-|
D----0-0-0-0-0-0-0-0-0-0-0-0-0--5-5-3---------------------|-|

G---------------------------------------------------------|-|
D---------------------------------------------------------|-|
A---------------------------------------------------------|-|
D----0-0-0-0-0-0-0-0-0-0-0-0-0--5-5-5-(3)-----------------|-|

G---------------------------------------------------------|-|
D---------------------------------------------------------|-|
A---------------------------------------------------------|-|
D----0-0-0-0-0-0-0-0-0-0-0-0-0--5-5-5-(3)-----------------|-|

Verse=Intro

Pre-Chorus

G---------------------------------------------------------|-|
D---------------------------------------------------------|-|
A---3-3-3-3-3-3-3-3---------------------------------------|-|
D-------------------5-5-5-5-5-5-5-5(3)--------------------|-|

Chorus

G---------------------------------------------------------|-|
D---------------------------------------------------------|-|
A---------------------------------------------------------|-|
D----0-0-0-0-0-0-0-0-0-0-0-0-0--3-3-5---------------------|-|


G---------------------------------------------------------|-|
D---------------------------------------------------------|-|
A---------------------------------------------------------|-|
D----0-0-0-0-0-0-0-0-0-0-0-0-0--5-5-3---------------------|-|


Verse=Intro

Chorus

G---------------------------------------------------------|-|
D---------------------------------------------------------|-|
A---------------------------------------------------------|-|
D----0-0-0-0-0-0-0-0-0-0-0-0-0--3-3-5---------------------|-|


G---------------------------------------------------------|-|
D---------------------------------------------------------|-|
A---------------------------------------------------------|-|
D----0-0-0-0-0-0-0-0-0-0-0-0-0--5-5-3---------------------|-|

G---------------------------------------------------------|-|
D---------------------------------------------------------|-|
A---------------------------------------------------------|-|
D----0-0-0-0-0-0-0-0-0-0-0-0-0--3-3-5---------------------|-|

G---------------------------------------------------------|-|
D---------------------------------------------------------|-|
A---3-3-3-3-3-3-3-3---------------------------------------|-|
D-------------------5-5-5-5-5-5-5-5(3)--------------------|-|

G---------------------------------------------------------|-|
D---------------------------------------------------------|-|
A---------------------------------------------------------|-|
D----0-0-0-0-0-0-0-0-0-0-0-0-0--3-3-5---------------------|-|


G---------------------------------------------------------|-|
D---------------------------------------------------------|-|
A---------------------------------------------------------|-|
D----0-0-0-0-0-0-0-0-0-0-0-0-0--5-5-3---------------------|-|

Verse

Pre-Chorus

Chorus

G---------------------------------------------------------|-|
D---------------------------------------------------------|-|
A---------------------------------------------------------|-|
D----0-0-0-0-0-0-0-0-0-0-0-0-0--3-3-5---------------------|-|


G---------------------------------------------------------|-|
D---------------------------------------------------------|-|
A---------------------------------------------------------|-|
D----0-0-0-0-0-0-0-0-0-0-0-0-0--5-5-3---------------------|-|

G---------------------------------------------------------|-|
D---------------------------------------------------------|-|
A---------------------------------------------------------|-|
D----0-0-0-0-0-0-0-0-0-0-0-0-0--3-3-5---------------------|-|


G---------------------------------------------------------|-|
D---------------------------------------------------------|-|
A---3-3-3-3-3-3-3-3---------------------------------------|-|
D-------------------5-5-5-5-5-5-5-5(3)--------------------|-|

G---------------------------------------------------------|-|
D---------------------------------------------------------|-|
A---------------------------------------------------------|-|
D----0-0-0-0-0-0-0-0-0-0-0-0-0--3-3-5---------------------|-|


G---------------------------------------------------------|-|
D---------------------------------------------------------|-|
A---------------------------------------------------------|-|
D----0-0-0-0-0-0-0-0-0-0-0-0-0--5-5-3---------------------|-|

Outro
„fathers a name you haven’t earned yet”
G-----------|-|
D-----------|-|
A-----------|-| 3x
D---5-3-6-0-|-|

G---------------------------------------------------------|-|
D---------------------------------------------------------|-|
A---------------------------------------------------------|-|
D----0-0-0-0-0-0-0-0-0-0-0-0-0--3-3-5---------------------|-|

G---------------------------------------------------------|-|
D---------------------------------------------------------|-|
A---------------------------------------------------------|-|
D----0-0-0-0-0-0-0-0-0-0-0-0-0--5-5-3---------------------|-|

G---------------------------------------------------------|-|
D---------------------------------------------------------|-|
A---------------------------------------------------------|-|
D----0-0-0-0-0-0-0-0-0-0-0-0-0--3-3-5---------------------|-|

G---------------------------------------------------------|-|
D---------------------------------------------------------|-|
A---------------------------------------------------------|-|
D----0-0-0-0-0-0-0-0-0-0-0-0-0--5-5-3---------------------|-|

Verse

And at the end a lot of chorus:-)
Suggest correction
comments
print report bad tab
4 comments total. Showing first comments.
0 reply
big_d 244 wrote on November 20 2006, 09:58 pm

good job i give this a five

0 reply
Satan Man 1,286 wrote on March 11 2007, 10:09 am

its played on a 5 string! just tab it as a 4 stng versionin standard B [BEAD]

0 reply
Bremsspur 132 wrote on April 13 2007, 08:00 am

wrong!

guest
You may want to rate the tab now too:
select rating
Wanna post a correction for this tab? Suggest correction