Oops, an error
Loading. Please wait.

Next Contestant Bass Tab

version 1
version 1

Whole song

Interactive

5,822 views 1 this week
1 commentread comment
1 2 3 4 5
x 4
add to favorites
launch autoscroll
font size
0
reset
guitar tuner
Autoscroll
slow
fast
+/-
esc
set tempo
stop
Help us to improve Ultimate-Guitar.com Take our survey!
×
Author
I saw this tab on another site, and thought that the UG community should have it,
none of the credit is mine, the credit goes to ClosedRoad

Intro
First only guitar then:

Verse I
G ---------------------|
D ---------------------|
A ---------------------| 
E ---------------------| 4x
C -2~---5~---0~---7~---|

verse II
G --------------------------------------|
D --------------------------------------|
A --------------------------------------|
E --------------------------------------| 4x
C -22222222-55555555-00000000-77777777--|

Chorus
G ---------------------------------------------|
D ---------------------------------------------|
A ---------------------------------------------|
E ---------------------------------------------| 1x
C -0h2h5-2--55-00-77---0h2h5-2--55--0000-7777--|

G -------------------------|
D -------------------------|
A -------------------------|
E -------------------------| 2x
C -2222-5555-0000-77/1212--|

G ---------|
D ---------|
A ---------|
E ---------| 1x
C -55--77--|

Verse I  1x
Verse II 3x
Chorus 

First rest then bass comes in with

Bridge
G ------------------|
D ------------------|
A ------------------|
E -3--------2-------|
C ---5-2-0----4-1-0-|

G -----------------------------------------------------------------------------------------|
D -----------------------------------------------------------------------------------------|
A -----------------------------------------------------------------------------------------|
E ------------------------------------------------------------------------3-------2--------|
C -0h2h5p2--0h2h5p2--0h2h5p2--0h2h5-7-5--0h2h5p2--0h2h5p2--0h2h5p2--0h2h5---5-2-0---4-1-0--|

G -------------------------------------------|
D -------------------------------------------|
A -------------------------------------------|
E -------------------------3--------2--------| 2x
C -02-/5-2--0-2-5-7--02-/5---5-2-0----4-1-0--|

Verse I 2x
Chrorus until 2end bar then

G -------------------------------------------|
D -------------------------------------------|
A -------------------------------------------|
E -------------------------------------------| 2x
C -22222222-55555555-00000000-7777/12121212--|

End
G ----------|
D ----------|
A ----------|
E ----------|
C --55--77--|
Suggest correction
comments
print report bad tab
1 comment total.
+1 reply
ClosedRoad 691 Jul 18, 2007 07:04 AM

Thanks for the credit, everyone should be like that

guest
You may want to rate the tab now too:
select rating
Wanna post a correction for this tab? Suggest correction