Oops, an error
Loading. Please wait.

Next Contestant tab

version 2
version 2

Whole song

Interactive

3,942 views 3 this week
no commentswrite comment
1 2 3 4 5
2 more votes to show rating
add to favorites
×
Save as Personal and add changes to this tab that will be seen only by you. Learn more ›
×
You can save this tab as Personal to edit and correct it or add notes. All changes will be seen only by you. Learn more »
launch autoscroll
font size
0
reset
how to read this tab
guitar tuner
edit
Autoscroll
slow
fast
+/-
esc
set tempo
stop
Next Contestant
Nickelback
All The Right Reasons (2005)

Next Contestant:  written by Chad Kroeger and Nickelback

NOTE:  This is not like my other tabs; I was asked to 
shorten by other UG Contributors.  The full tab can be 
uploaded if enough people ask for it.

GTR I - Drop C Tuning (d,A,F,C,G,C)
GTR II - Drop C Tuning (d,A,F,C,G,C)
GTR III - Drop C Tuning "Synthesizer" (d,A,F,C,G,C)

Verse

  GTR I (Distortion w. Flanger)                   
d|-------------------------------------------------|
A|-------------------------------------------------|
F|--------9-----7-----7--9--------9-----7-----7--9-|
C|-----9-----9-----9-----------9-----9-----9-------|
G|--7-----------------------7----------------------|
C|-------------------------------------------------|
    .  .  .  .  .  .  .  .  .  .  .  .  .  .  .  . 

Repeat Bar: 9x

Verse 2

  GTR I
d|-------------------------------------------------|
A|-------------------------------------------------|
F|--------9-----7-----7--9--------9-----7-----7--9-|
C|-----9-----9-----9-----------9-----9-----9-------|
G|--7-----------------------7----------------------|
C|-------------------------------------------------|
 |  .  .  .  .  .  .  .  .  .  .  .  .  .  .  .  . 
 |GTR II (Distortion w. Chorus)            
d|-------------------------------------------------|
A|----------------12-------------------------------|
F|----------------------12----------------------14-|
C|----------------------------------------14-------|
G|-------------------------------------------------|
C|-------------------------------------------------|
                                                   
  GTR I                                       
d|-------------------------------------------------|
A|-------------------------------------------------|
F|--------9-----7-----7--9--------9-----7-----7--9-|
C|-----9-----9-----9-----------9-----9-----9-------|
G|--7-----------------------7----------------------|
C|-------------------------------------------------|
 |  .  .  .  .  .  .  .  .  .  .  .  .  .  .  .  . 
 |GTR II                                           
d|-------------------------------------------------|
A|----------------12-------------------------------|
F|----------------------12----------------14-------|
C|----------------------------------------------14-|
G|-------------------------------------------------|
C|-------------------------------------------------|

Repeat Entire 2 Bars: 4x

Pre Chorus

  GTR III
d|-------------------------------------------------|
A|-------------------------------------------------|
F|-------------------------------------------------|
C|--3-----------------------7----------------------|
G|--3-----------------------7----------------------|
C|--3-----------------------7----------------------|
                                                   
Chorus

  GTR I,II
d|-------------------------------------------------|
A|-------------------------------------------------|
F|-------------------------------------------------|
C|--0--2--5--2--x-----------5--5--5--5-------------|
G|--0--2--5--2--x-----------5--5--5--5--x--x--x--x-|
C|--0--2--5--2--x-----------5--5--5--5--x--x--x--x-|
                                                   
  GTR I,II
d|-------------------------------------------------|
A|-------------------------------------------------|
F|-------------------------------------------------|
C|--0-----0-----------------7-----7----------------|
G|--0-----0-----x--x-----x--7-----7-----x--x-------|
C|--0-----0-----x--x-----x--7-----7-----x--x-------|
                                                   
  GTR I,II
d|-------------------------------------------------|
A|-------------------------------------------------|
F|-------------------------------------------------|
C|--0--2--5--2--x-----------5--5--5--5-------------|
G|--0--2--5--2--x-----------5--5--5--5--x--x--x--x-|
C|--0--2--5--2--x-----------5--5--5--5--x--x--x--x-|
                                                   
  GTR I,II
d|-------------------------------------------------|
A|-------------------------------------------------|
F|-------------------------------------------------|
C|--0-----0-----0-----0-----7-----7-----7-----7----|
G|--0-----0-----0-----0-----7-----7-----7-----7----|
C|--0-----0-----0-----0-----7-----7-----7-----7----|

  GTR I,II
d|-------------------------------------------------|
A|-------------------------------------------------|
F|-------------------------------------------------|
C|--2-----2-----2-----2-----5-----5-----5-----5----|
G|--2-----2-----2-----2-----5-----5-----5-----5----|
C|--2-----2-----2-----2-----5-----5-----5-----5----|
                                                   
  GTR I,II
d|-------------------------------------------------|
A|-------------------------------------------------|
F|-------------------------------------------------|
C|--0-----0-----0-----0-----7-----7----12----12----|
G|--0-----0-----0-----0-----7-----7----12----12----|
C|--0-----0-----0-----0-----7-----7----12----12----|
                                                   
  GTR I,II
d|-------------------------------------------------|
A|-------------------------------------------------|
F|-------------------------------------------------|
C|--2-----2-----2-----2-----5-----5-----5-----5----|
G|--2-----2-----2-----2-----5-----5-----5-----5----|
C|--2-----2-----2-----2-----5-----5-----5-----5----|
                                                   
  GTR I,II
d|-------------------------------------------------|
A|-------------------------------------------------|
F|-------------------------------------------------|
C|--0-----0-----0-----0-----7-----7----12----12----|
G|--0-----0-----0-----0-----7-----7----12----12----|
C|--0-----0-----0-----0-----7-----7----12----12----|

  GTR I,II
d|-------------------------------------------------|
A|-------------------------------------------------|
F|-------------------------------------------------|
C|--5--5--------------------7--7-------------------|
G|--5--5--------------------7--7-------------------|
C|--5--5--------------------7--7-------------------|
                                                   
Post Chorus

  GTR I (Distortion w. Flanger)
d|-------------------------------------------------|
A|-------------------------------------------------|
F|--------9-----7-----7--9--------9-----7-----7--9-|
C|-----9-----9-----9-----------9-----9-----9-------|
G|--7-----------------------7----------------------|
C|-------------------------------------------------|
    .  .  .  .  .  .  .  .  .  .  .  .  .  .  .  . 

  GTR I 
d|-------------------------------------------------|
A|-------------------------------------------------|
F|--------9-----7-----7--9--------9-----7-----7--9-|
C|-----9-----9-----9-----------9-----9-----9-------|
G|--7-----------------------7----------------------|
C|-------------------------------------------------|
    .  .  .  .  .  .  .  .  .  .  .  .  .  .  .  . 

Verse 2

  GTR I
d|-------------------------------------------------|
A|-------------------------------------------------|
F|--------9-----7-----7--9--------9-----7-----7--9-|
C|-----9-----9-----9-----------9-----9-----9-------|
G|--7-----------------------7----------------------|
C|-------------------------------------------------|
 |  .  .  .  .  .  .  .  .  .  .  .  .  .  .  .  . 
 |GTR II (Distortion w. Chorus)            
d|-------------------------------------------------|
A|----------------12-------------------------------|
F|----------------------12----------------------14-|
C|----------------------------------------14-------|
G|-------------------------------------------------|
C|-------------------------------------------------|
                                                   
  GTR I
d|-------------------------------------------------|
A|-------------------------------------------------|
F|--------9-----7-----7--9--------9-----7-----7--9-|
C|-----9-----9-----9-----------9-----9-----9-------|
G|--7-----------------------7----------------------|
C|-------------------------------------------------|
 |  .  .  .  .  .  .  .  .  .  .  .  .  .  .  .  . 
 |GTR II                                           
d|-------------------------------------------------|
A|----------------12-------------------------------|
F|----------------------12----------------14-------|
C|----------------------------------------------14-|
G|-------------------------------------------------|
C|-------------------------------------------------|

Repeat Entire 2 Bars: 4x

Pre Chorus: 1x

Chorus: 1x

Bridge

  GTR I
d|-------------------------------------------------|
A|-------------------------------------------------|
F|-------------------------------------------------|
C|-------------------------------------------------|
G|-------------------------------------------------|
C|--0--2--5--2-----0--2--5--2-----0--2--5--2-----0-|
                                                   
  GTR I
d|-------------------------------------------------|
A|-------------------------------------------------|
F|-------------------------------------------------|
C|-------------------------------------------------|
G|-------------------------------------------------|
C|--2--5--7-----5-----0--2--5--2-----0--2--5--2----|

  GTR I
d|-------------------------------------------------|
A|-------------------------------------------------|
F|-------------------------------------------------|
C|-------------------------------------------------|
G|--------------------------5----------------------|
C|--0--2--5--2-----0--2--5-----8--7--5--8--7--5--0-|
 |                             .  .  .  .  .  .  . 
 |GTR II                                           
d|-------------------------------------------------|
A|-------------------------------------------------|
F|-------------------------------------------------|
C|-------------------------------------------------|
G|--------------------------5----------------------|
C|-----------------------------8--7--5--8--7--5--0-|
                               .  .  .  .  .  .  .
 
  GTR I,II
d|-------------------------------------------------|
A|-------------------------------------------------|
F|-------------------------------------------------|
C|-------------------------------------------------|
G|-------------------------------------------------|
C|--0--2--5--2-----0--2--5--2-----0--2--5--2-----0-|
                                                   
  GTR I,II
d|-------------------------------------------------|
A|-------------------------------------------------|
F|-------------------------------------------------|
C|-------------------------------------------------|
G|-------------------------------------------------|
C|--2--5--7-----5-----0--2--5--2-----0--2--5--2----|

  GTR I,II
d|-------------------------------------------------|
A|-------------------------------------------------|
F|-------------------------------------------------|
C|-------------------------------------------------|
G|--------------------------5----------------------|
C|--0--2--5--2-----0--2--5-----8--7--5--8--7--5--0-|
                               .  .  .  .  .  .    

  GTR I,II
d|-------------------------------------------------|
A|-------------------------------------------------|
F|-------------------------------------------------|
C|--------2--------5--------2--------0--2--5--7----|
G|--------2--------5--------2--------0--2--5--7----|
C|--------2--------5--------2--------0--2--5--7--0-|
                                        .  .  .    
                                                   
  GTR I,II
d|-------------------------------------------------|
A|-------------------------------------------------|
F|-------------------------------------------------|
C|--------2--------5-------------------------------|
G|--------2--------5--------5----------------------|
C|--------2--------5-----------8--7--5--8--7--5--0-|
                               .  .  .  .  .  .    

  GTR I,II
d|-------------------------------------------------|
A|-------------------------------------------------|
F|-------------------------------------------------|
C|--------2--------5--------2--------0--2--5--7----|
G|--------2--------5--------2--------0--2--5--7----|
C|--------2--------5--------2--------0--2--5--7--0-|
                                        .  .  .    
                                                   
  GTR I,II
d|-------------------------------------------------|
A|-------------------------------------------------|
F|-------------------------------------------------|
C|--------2--------5-------------------------------|
G|--------2--------5--------5----------------------|
C|--------2--------5-----------8--7--5--8--7--5--0-|
                               .  .  .  .  .  .    

  GTR I,II
d|-------------------------------------------------|
A|-------------------------------------------------|
F|-------------------------------------------------|
C|-------------------------------------------------|
G|-------------------------------------------------|
C|--------------------------0b---------------------|
                                                   
Verse 2: 2x

Pre Chorus: 1x
                                                   
Chorus 2

  GTR I,II
d|-------------------------------------------------|
A|-------------------------------------------------|
F|-------------------------------------------------|
C|--0--2--5--2--x-----------5--5--5--5-------------|
G|--0--2--5--2--x-----------5--5--5--5--x--x--x--x-|
C|--0--2--5--2--x-----------5--5--5--5--x--x--x--x-|
                                                   
  GTR I,II
d|-------------------------------------------------|
A|-------------------------------------------------|
F|-------------------------------------------------|
C|--0-----0-----------------7-----7----------------|
G|--0-----0-----x--x-----x--7-----7-----x--x-------|
C|--0-----0-----x--x-----x--7-----7-----x--x-------|
                                                   
  GTR I,II
d|-------------------------------------------------|
A|-------------------------------------------------|
F|-------------------------------------------------|
C|--0--2--5--2--x-----------5--5--5--5-------------|
G|--0--2--5--2--x-----------5--5--5--5--x--x--x--x-|
C|--0--2--5--2--x-----------5--5--5--5--x--x--x--x-|
                                                   
  GTR I,II
d|-------------------------------------------------|
A|-------------------------------------------------|
F|-------------------------------------------------|
C|--0-----0-----0-----0-----7-----7-----7-----7----|
G|--0-----0-----0-----0-----7-----7-----7-----7----|
C|--0-----0-----0-----0-----7-----7-----7-----7----|

  GTR I,II
d|-------------------------------------------------|
A|-------------------------------------------------|
F|-------------------------------------------------|
C|--2-----2-----2-----2-----5-----5-----5-----5----|
G|--2-----2-----2-----2-----5-----5-----5-----5----|
C|--2-----2-----2-----2-----5-----5-----5-----5----|
                                                   
  GTR I,II
d|-------------------------------------------------|
A|-------------------------------------------------|
F|-------------------------------------------------|
C|--0-----0-----0-----0-----7-----7----12----12----|
G|--0-----0-----0-----0-----7-----7----12----12----|
C|--0-----0-----0-----0-----7-----7----12----12----|
                                                   
  GTR I,II
d|-------------------------------------------------|
A|-------------------------------------------------|
F|-------------------------------------------------|
C|--2-----2-----2-----2-----5-----5-----5-----5----|
G|--2-----2-----2-----2-----5-----5-----5-----5----|
C|--2-----2-----2-----2-----5-----5-----5-----5----|
                                                   
  GTR I,II
d|-------------------------------------------------|
A|-------------------------------------------------|
F|-------------------------------------------------|
C|--0-----0-----0-----0-----7-----7----12----12----|
G|--0-----0-----0-----0-----7-----7----12----12----|
C|--0-----0-----0-----0-----7-----7----12----12----|

  GTR I,II
d|-------------------------------------------------|
A|-------------------------------------------------|
F|-------------------------------------------------|
C|--2--2--2--2--2--2--2--2--5--5--5--5--5--5--5--5-|
G|--2--2--2--2--2--2--2--2--5--5--5--5--5--5--5--5-|
C|--2--2--2--2--2--2--2--2--5--5--5--5--5--5--5--5-|

  GTR I,II
d|-------------------------------------------------|
A|-------------------------------------------------|
F|-------------------------------------------------|
C|--0--0--0--0--0--0--0--0--7--7--7--7-12-12-12-12-|
G|--0--0--0--0--0--0--0--0--7--7--7--7-12-12-12-12-|
C|--0--0--0--0--0--0--0--0--7--7--7--7-12-12-12-12-|

  GTR I,II
d|-------------------------------------------------|
A|-------------------------------------------------|
F|-------------------------------------------------|
C|--2--2--2--2--2--2--2--2--5--5--5--5--5--5--5--5-|
G|--2--2--2--2--2--2--2--2--5--5--5--5--5--5--5--5-|
C|--2--2--2--2--2--2--2--2--5--5--5--5--5--5--5--5-|

  GTR I,II
d|-------------------------------------------------|
A|-------------------------------------------------|
F|-------------------------------------------------|
C|--0--0--0--0--0--0--0--0--7--7--7--7-12-12-12-12-|
G|--0--0--0--0--0--0--0--0--7--7--7--7-12-12-12-12-|
C|--0--0--0--0--0--0--0--0--7--7--7--7-12-12-12-12-|

  GTR I,II
d|-------------------------------------------------|
A|-------------------------------------------------|
F|-------------------------------------------------|
C|--5--5--------------------7--7-------------------|
G|--5--5--------------------7--7-------------------|
C|--5--5--------------------7--7-------------------|

                                                   
| b  bend
| r  release bend
|PH. pinch harmonic
|fbk feedback
| .  palm-mute
| /  slide up
| \  slide down
| h  hammer-on
| p  pull-off
| ~  vibrato
| +  harmonic
| x  Mute note
===============================================================================


            
            
Suggest correction
Creating personal tab
Creating personal tab
You can edit any tab online and save it as your Personal.

You can edit, replace or remove any tab part or add personal notes – all changes will be seen only by you.

Personal tabs can be accessed anytime from any device, even offline.
Learn more »
Give kudos to tab author, rate the tab!
1 2 3 4 5
comments
print report bad tab
guest
You may want to rate the tab now too:
select rating
Wanna post a correction for this tab? Suggest correction