Oops, an error
Loading. Please wait.
We have Chord Pro version of Photograph.
It's the closest thing you can get to the original song and it has interactive parts. Check out the tab »
×

Photograph Bass

version 1
version 1

Whole song

  • This tab is based on the original 5 string bass track that Mike Kroeger plays.
33,562 views 33 this week
24 commentsread comments
1 2 3 4 5
x 26
add to favorites
launch autoscroll
font size
0
reset
guitar tuner
backing track
0:00
0:00
Autoscroll
slow
fast
+/-
esc
set tempo
stop
Author
Difficulty
intermediate
artist: Nickelback
Song: Photograph
Album: All the Right Reasons
Tuning: Standard

this is 99.9% All the other tabs for this song are horrible, and since all the other 
are horrible, i'm guessing that everybody who has tabbed this out are really not that good, 
I'm going to say that the tab difficulty is intermediate. ha.

This does not come in until after "what the hell is on Joey's head?"
verse:
-----------------------------------------------------|
-----------------------------6-----------------------|
-6---------8-----4---------6-------------------------|
--6-6----6---6-----4-4---4---------------------------|


-----------------------------------------------------|
-----------------------------------------------------|
-6---------8-----4--------6--------------------------|
--6-6----6---6----4-4----4---4-4---------------------|


------------------------------------------------------|
-----------------------------6------------------------|
-6-6-6------8----4---------6--------------------------|
----------6---6---4-4----4----------------------------|


Prechorus or w/e ya call it, just play it after the verse
------------------------------------------------------|
-4-4-4---44--------6----------------------------------|
-----------------6------------------------------------|
-------------4-6--------------------------------------|

Chorus:
--------------------------------------------------------|
----------------8---------------------------------------|play this twice
-6---6-6-6----8---8-----4---4--4-4-4--------------------|
---6--------6-------6-----4----------4-4-4--4-4-4-------|

postchorus?:dunno what you call it, but play this lick after the 1st chorus
--------------------------------------------------------|
---------------------------4-4-4--4-4-4--6--------------|
-6-6-6--6-6-6-------------------------------------------|
--------------6-6-6--6-6-6------------------------------|
**when you hit the 6th fret on the D string, let it ring in the next verse.

Bridge:
-----------------------------------------------------|------------|
---------------------------4-4-4--4-4-4------6--------------------| play it twice
-6-6-6--6-6-6------------------------------6---6-----|--6---------|
--------------6-6-6--6-6-6---------------4-------4---|------------|
play the the fourth fret on the A string when you play the bridge the 2nd time.

Ending:
--------------------------------------------------------|
--------------------------------------------------------|
-6-6-6--6-6-6--------------4-4-4--4-4-4-----------------|
--------------6-6-6--6-6-6--------------4---------------|

Hey, I might have some of the spacing wrong on here, but I do know I have 99.9 percent 
the notes right, and this was my first tab ever. Comment it
and rate it PLEASE.
Enjoy.


Verse
prechorus
chorus
postchorus-lick
verse
prechorus
BRIDGE
chorus (i think?)
ending

ultimate-guitar.com
Suggest correction
comments
print report bad tab
24 comments total. Showing first comments.
-2 reply
Wildcat_LG 10 Jan 22, 2006 01:44 AM

This Tab is 100% accurate. I loved it. Answered all my questions about the song.

+1 reply
andyrobo247 10 Feb 16, 2006 04:02 AM

nie tab

0 reply
mxh 40 Mar 17, 2006 02:40 PM

i dont play bass so i dotn have a clue if this is good or bad i just felt lke it

guest
You may want to rate the tab now too:
select rating
Wanna post a correction for this tab? Suggest correction