Oops, an error
Loading. Please wait.
We have an official Photograph tab made by UG professional guitarists. Check out the tab »
×

Photograph bass

version 2
version 2

Whole song

  • This tab is based on the original 5 string bass track that Mike Kroeger plays.
265 views 3 this week
no commentswrite comment
1 2 3 4 5
x 3
add to favorites
×
Save as Personal and add changes to this tab that will be seen only by you. Learn more ›
×
You can save this tab as Personal to edit and correct it or add notes. All changes will be seen only by you. Learn more »
launch autoscroll
font size
0
reset
guitar tuner
backing track
0:00
0:00
edit
Autoscroll
slow
fast
+/-
esc
set tempo
stop
About this tab version
This tab is based on the original 5 string bass track that Mike Kroeger plays. Was this info helpful? Yes No
Title: Photograph
Artist: Nickelback
Album: All The Right Reasons
Tuning: 5 String Standard (BEADG)
Tab Author: Pearce Hamblin (The Bass Diaries)

  [Intro]
G|--------|--------|--------|--------|--------|--------|--------|---------------------|
D|--------|--------|--------|--------|--------|--------|--------|---------------------|
A|--------|--------|--------|--------|--------|--------|--------|---------------------|
E|--------|--------|--------|--------|--------|--------|--------|---------------------|
B|--------|--------|--------|--------|--------|--------|--------|----------------11\\\|


G|---------------------------------|--------|---------------------------------|--------|
D|---------------------------------|--------|---------------------------------|--------|
A|---------------------------------|--------|-------------8-------------------|--------|
E|---------------------------------|--------|-6-----------------------6-------|--------|
B|\4-----------4-----------4-------|--------|---------------------------------|--------|


G|---------------------------------|--------|---------------------------------|--------|
D|---------------------------------|--------|-------------------------6-------|--------|
A|-4-------------------------------|--------|-------------6-------------------|--------|
E|---------------------------------|--------|-4-------------------------------|--------|
B|-------------2-----------2-------|--------|---------------------------------|--------|


G|---------------------------------|--------|---------------------------------|--------|
D|---------------------------------|--------|---------------------------------|--------|
A|-6-------------------------------|--------|-------------8-------------------|--------|
E|---------------------------------|--------|-6-----------------------6-------|--------|
B|-------------4-----------4-------|--------|---------------------------------|--------|


G|---------------------------------|--------|---------------------------------|--------|
D|---------------------------------|--------|---------------------------------|--------|
A|-4-------------------------------|--------|-------------6-------------------|--------|
E|---------------------------------|--------|-4-----------------------4-------|--------|
B|-------------2-----------2-------|--------|---------------------------------|--------|


G|---------------------------------|--------|---------------------------------|--------|
D|---------------------------------|--------|---------------------------------|--------|
A|---------------------------------|--------|-------------8-------------------|--------|
E|---------------------------------|--------|-6-----------------------6-------|--------|
B|-4-----------4-----------4-------|--------|---------------------------------|--------|


G|---------------------------------|--------|---------------------------------|--------|
D|---------------------------------|--------|-------------------------6-------|--------|
A|-4-------------------------------|--------|---------------------------------|--------|
E|---------------------------------|--------|-4-----------4-------------------|--------|
B|-------------2-----------2-------|--------|---------------------------------|--------|


G|---------------------------------|---------------------------------|---------------------------------|
D|-------------------------4-------|---------------------------------|-------------------------6-------|
A|---------------------------------|---------------------------------|-----------------6---------------|
E|-2-----------2-------------------|---------2-------2-------2-------|-4-------4-----------------------|
B|---------------------------------|---------------------------------|---------------------------------|

                        [Chorus 1]
G|---------------------|---------------------------------|---------------------------------|
D|---------------------|---------------------------------|---------------------------------|
A|---------------------|-------------------------6-------|---------6-------6-------6---8---|
E|----------------6----|-------------6-------------------|---------------------------------|
B|---------------------|-4-------------------------------|---------------------------------|


G|---------------------------------|---------------------------------|---------------------------------|
D|-------------------------8-------|---------------------------------|---------------------------------|
A|-------------8-------------------|-----8---------------------------|-4-------------------------------|
E|-6-------------------------------|-----------------4-------6-------|---------------------------------|
B|---------------------------------|---------------------------------|---------2-------2-------2-------|


G|---------------------------------|---------------------------------|---------------------------------|
D|---------------------------------|---------------------------------|---------------------------------|
A|-4-------------------------------|---------------------------------|-------------------------4-------|
E|---------------------------------|-4-----------------------4-------|---------4-------4---6-----------|
B|---------2-------2-------2-------|---------------------------------|---------------------------------|


G|---------------------------------|---------------------------------|---------------------------------|
D|---------------------------------|---------------------------------|-------------------------8-------|
A|-------------------------6-------|---------6-------6-------6---8---|-------------8-------------------|
E|-------------6-------------------|---------------------------------|-6-------------------------------|
B|-4-------------------------------|---------------------------------|---------------------------------|


G|---------------------------------|---------------------------------|---------------------------------|
D|---------------------------------|---------------------------------|---------------------------------|
A|-----8---------------------------|-4-------------------------------|-4-------------------------------|
E|-----------------4-------6-------|---------------------------------|---------------------------------|
B|---------------------------------|---------2-------2-------2-------|---------2-------2-------2-------|


G|---------------------------------|---------------------|---------------------------------|
D|---------------------------------|---------------------|---------------------------------|
A|---------------------------------|---------------------|-------------------------6-------|
E|-4-----------------------4-------|---------------------|---------------------------------|
B|---------------------------------|----------------11\\\|\4-----------4-------------------|


G|---------------------------------|---------------------------------|---------------------------------|
D|---------------------------------|-------------------------8-------|---------------------------------|
A|-----------------6---------------|---------------------------------|-----------------8---------------|
E|---------------------------------|-6-----------6-------------------|---------6-----------------------|
B|---------4-----------------------|---------------------------------|---------------------------------|


G|---------------------------------|---------------------------------|--------|--------|
D|-------------------------4-------|-----------------4---------------|--------|--------|
A|---------------------------------|---------------------------------|--------|--------|
E|-2-----------2-------------------|---------2---------------2-------|-4------|--------|
B|---------------------------------|---------------------------------|--------|--------|

  [Verse 2]
G|---------------------------------|--------|---------------------------------|
D|---------------------------------|--------|---------------------------------|
A|-------------6-------------------|--------|-------------8-------------------|
E|---------------------------------|--------|-6-----------------------6-------|
B|-4-----------------------4-------|--------|---------------------------------|


G|---------------------------------|---------------------------------|---------------------------------|
D|---------------------------------|---------------------------------|---------------------------------|
A|---------------------------------|-4-----------------------4-------|-------------------------4---6---|
E|---------6-------6-------8-------|---------------------------------|---------------------------------|
B|-------------------------6-------|-------------2-------------------|---------------------------------|


G|---------------------------------|---------------------|---------------------------------|--------|
D|-------------------------6-------|---------------------|---------------------------------|--------|
A|---------------------------------|---------------------|-6-------------------------------|--------|
E|-4-----------4-------------------|----------------6----|---------------------------------|--------|
B|---------------------------------|---------------------|-------------4-----------4-------|--------|


G|---------------------------------|---------------------------------|---------------------------------|
D|---------------------------------|---------------------------------|---------------------------------|
A|-------------8-------------------|---------------------------------|-4-----------------------4-------|
E|-6-----------------------6-------|---------6-------6-------8-------|---------------------------------|
B|---------------------------------|-------------------------6-------|-------------2-------------------|


G|---------------------------------|---------------------------------|---------------------|
D|---------------------------------|-------------------------6-------|---------------------|
A|-----------------4-------4---6---|---------------------------------|---------------------|
E|---------------------------------|-4-----------4-------------------|----------------6----|
B|---------------------------------|---------------------------------|---------------------|


G|---------------------------------|--------|---------------------------------|
D|---------------------------------|--------|---------------------------------|
A|-6-------------------------------|--------|-------------8-------------------|
E|---------------------------------|--------|-6-----------------------6-------|
B|-------------4-----------4-------|--------|---------------------------------|


G|---------------------------------|---------------------------------|
D|---------------------------------|---------------------------------|
A|---------------------------------|-4-----------------------4-------|
E|---------6-------6-------8-------|---------------------------------|
B|-------------------------6-------|-------------2-------------------|


G|---------------------------------|---------------------------------|---------------------|
D|---------------------------------|-------------------------6-------|---------------------|
A|-----------------4-------4---6---|---------------------------------|---------------------|
E|---------------------------------|-4-----------4-------------------|----------------6----|
B|---------------------------------|---------------------------------|---------------------|


G|---------------------------------|---------------------------------|---------------------------------|
D|-------------------------4-------|-----------------4---------------|-------------------------6-------|
A|---------------------------------|---------------------------------|-----------------6---------------|
E|-2-----------2-------------------|---------2---------------2-------|-4-------4-----------------------|
B|---------------------------------|---------------------------------|---------------------------------|

                        [Chorus 2]
G|---------------------|---------------------------------|---------------------------------|
D|---------------------|---------------------------------|---------------------------------|
A|---------------------|-------------------------6-------|---------6-------6-------6---8---|
E|----------------6----|-------------6-------------------|---------------------------------|
B|---------------------|-4-------------------------------|---------------------------------|


G|---------------------------------|---------------------------------|---------------------------------|
D|-------------------------8-------|---------------------------------|---------------------------------|
A|-------------8-------------------|-----8---------------------------|-4-------------------------------|
E|-6-------------------------------|-----------------4-------6-------|---------------------------------|
B|---------------------------------|---------------------------------|---------2-------2-------2-------|


G|---------------------------------|---------------------------------|---------------------------------|
D|---------------------------------|---------------------------------|---------------------------------|
A|-4-------------------------------|---------------------------------|-------------------------4-------|
E|---------------------------------|-4-----------------------4-------|---------4-------4---6-----------|
B|---------2-------2-------2-------|---------------------------------|---------------------------------|


G|---------------------------------|---------------------------------|---------------------------------|
D|---------------------------------|---------------------------------|-------------------------8-------|
A|-------------------------6-------|---------6-------6-------6---8---|-------------8-------------------|
E|-------------6-------------------|---------------------------------|-6-------------------------------|
B|-4-------------------------------|---------------------------------|---------------------------------|


G|---------------------------------|---------------------------------|---------------------------------|
D|---------------------------------|---------------------------------|---------------------------------|
A|-----8---------------------------|-4-------------------------------|-4-------------------------------|
E|-----------------4-------6-------|---------------------------------|---------------------------------|
B|---------------------------------|---------2-------2-------2-------|---------2-------2-------2-------|


G|---------------------------------|---------------------|--------|--------|--------|
D|---------------------------------|---------------------|--------|--------|--------|
A|---------------------------------|---------------------|--------|--------|--------|
E|-4-----------------------4-------|---------------------|--------|--------|--------|
B|---------------------------------|----------------11\\\|--------|--------|--------|

           [Bridge]
G|--------|---------------------------------|---------------------------------|
D|--------|---------------------------------|---------------------------------|
A|--------|-------------------------6-------|-----------------6---------------|
E|--------|---------------------------------|---------------------------------|
B|--------|-4-----------4-------------------|---------4-----------------------|


G|---------------------------------|---------------------------------|---------------------------------|
D|-------------------------8-------|---------------------------------|-------------------------4-------|
A|---------------------------------|-----------------8---------------|---------------------------------|
E|-6-----------6-------------------|---------6-----------------------|-2-----------2-------------------|
B|---------------------------------|---------------------------------|---------------------------------|


G|---------------------------------|---------------------------------|---------------------------------|
D|-----------------4---------------|---------------------------------|-----------------6---------------|
A|---------------------------------|---------------------------------|-------------------------6-------|
E|---------2---------------2-------|-4-----------4-----------4-------|---------4-----------------------|
B|---------------------------------|---------------------------------|---------------------------------|


G|---------------------------------|---------------------------------|---------------------------------|
D|---------------------------------|---------------------------------|---------------------------------|
A|-------------------------6-------|-----------------6---------------|-------------------------8-------|
E|---------------------------------|---------------------------------|-6-----------6-------------------|
B|-4-----------4-------------------|---------4-----------------------|---------------------------------|


G|---------------------------------|---------------------------------|---------------------------------|
D|-----------------8---------------|-------------------------4-------|-----------------4---------------|
A|---------------------------------|---------------------------------|---------------------------------|
E|---------6-----------------------|-2-----------2-------------------|---------2---------------2-------|
B|---------------------------------|---------------------------------|---------------------------------|


G|---------------------------------|---------------------------------|
D|---------------------------------|-6-------------------------------|
A|---------------------------------|-------------6-------------------|
E|-4-----------4-----------4-------|-------------------------4-------|
B|---------------------------------|---------------------------------|


G|--------|--------|--------|--------|--------|--------|
D|--------|--------|--------|--------|--------|--------|
A|--------|--------|--------|--------|--------|--------|
E|--------|--------|-6------|--------|--------|--------|
B|-4------|--------|--------|--------|-2------|--------|

  [Chorus 3]
G|---------------------------------|---------------------------------|---------------------------------|
D|---------------------------------|---------------------------------|-------------------------8-------|
A|-------------------------6-------|---------6-------6-------6---8---|-------------8-------------------|
E|-------------6-------------------|---------------------------------|-6-------------------------------|
B|-4-------------------------------|---------------------------------|---------------------------------|


G|---------------------------------|---------------------------------|---------------------------------|
D|---------------------------------|---------------------------------|---------------------------------|
A|-----8---------------------------|-4-------------------------------|-4-------------------------------|
E|-----------------4-------6-------|---------------------------------|---------------------------------|
B|---------------------------------|---------2-------2-------2-------|---------2-------2-------2-------|


G|---------------------------------|---------------------------------|---------------------------------|
D|---------------------------------|---------------------------------|---------------------------------|
A|---------------------------------|-------------------------4-------|-------------------------6-------|
E|-4-----------------------4-------|---------4-------4---6-----------|-------------6-------------------|
B|---------------------------------|---------------------------------|-4-------------------------------|


G|---------------------------------|---------------------------------|---------------------------------|
D|---------------------------------|-------------------------8-------|---------------------------------|
A|---------6-------6-------6---8---|-------------8-------------------|-----8---------------------------|
E|---------------------------------|-6-------------------------------|-----------------4-------6-------|
B|---------------------------------|---------------------------------|---------------------------------|


G|---------------------------------|---------------------------------|---------------------------------|
D|---------------------------------|---------------------------------|---------------------------------|
A|-4-------------------------------|-4-------------------------------|---------------------------------|
E|---------------------------------|---------------------------------|-4-----------------------4-------|
B|---------2-------2-------2-------|---------2-------2-------2-------|---------------------------------|

                        [Outro]
G|---------------------|--------|--------|--------|--------|--------|--------|
D|---------------------|--------|--------|--------|--------|--------|--------|
A|---------------------|--------|--------|--------|--------|--------|--------|
E|---------------------|--------|--------|-6------|--------|--------|--------|
B|----------------11\\\|\4------|--------|--------|--------|-2------|--------|


***********************************
| \   Slide down
***********************************

            
            
Suggest correction
Creating personal tab
Creating personal tab
You can edit any tab online and save it as your Personal.

You can edit, replace or remove any tab part or add personal notes – all changes will be seen only by you.

Personal tabs can be accessed anytime from any device, even offline.
Learn more »
Give kudos to tab author, rate the tab!
1 2 3 4 5
comments
print report bad tab
guest
You may want to rate the tab now too:
select rating
Wanna post a correction for this tab? Suggest correction