Oops, an error
Loading. Please wait.
We have an official Photograph tab made by UG professional guitarists. Check out the tab »
×
265,466 views 48 this week
75 commentsread comments
1 2 3 4 5
x 111
add to favorites
×
Save as Personal and add changes to this tab that will be seen only by you. Learn more ›
×
You can save this tab as Personal to edit and correct it or add notes. All changes will be seen only by you. Learn more »
launch autoscroll
font size
0
reset
how to read this tab
guitar tuner
backing track
0:00
0:00
edit
Autoscroll
slow
fast
+/-
esc
set tempo
stop
Author
Artist: Nickelback
Song: Photograph
Guitarist: Chad Kroeger
Tabber: Dave Price

Listen to the song to get actual timing and good luck! ;)


[Verse/Pre-Chorus]

e|-0----0----0-0-----0-----0-0-0--0-|-0----0----0-0-----0-----0-0-0--0-|
B|-0----0----0-0-----0-----0-0-0--0-|-0----0----0-0-----0-----0-0-0--0-|
G|-9----9----9-9-----9-----9-9-9--8-|-8----8----8-8-----8-----8-8-8--0-|
D|-9----9----9-9-----9-----9-9-9--9-|-9----9----9-9-----9-----9-9-9--0-|
A|-7----7----7-7-----7-----7-7-7--9-|-9----9----9-9-----9-----9-9-9--0-|
E|-0----0----0-0-----0-----0-0-0--7-|-7----7----7-7-----7-----7-7-7----|

e|-0----0---0--0-----0----0--0--0--0--0-|
B|-0----0---0--0-----0----0--0--0--0--0-|
G|-11---11--11-11----11---11-11-11-11-6-|
D|-12---12--12-12----12---12-12-12-12-7-|
A|-12---12--12-12----12---12-12-12-12-7-|
E|-10---10--10-10----10---10-10-10-10-5-|
                                         (x4)
-0----0---0--0-----0----0--0--0--0--0-|
-0----0---0--0-----0----0--0--0--0--0-|
-6----6---6--6-----6----6--6--6--9--9-|
-7----7---7--7-----7----7--7--7--9--9-|
-7----7---7--7-----7----7--7--7--7--7-|
-5----5---5--5-----5----5--5--5--0--0-|

e|-0----0-------0--------0----0--0--0-----0-|
B|-0----0-------0--------0----0--0--0-----0-|
G|-4----4-------4--------4----4--4--4-----4-|
D|-5----5-------5--------5----5--5--5-----5-|
A|-5----5-------5--------5----5--5--5-----5-|
E|-3----3-------3--------3----3--3--3-----3-|

e|-0-----0------0--0------0----0--0--0--0--0-|
B|-0-----0------0--0------0----0--0--0--0--0-|
G|-6-----6------6--6------6----6--6--6--9--9-|
D|-7-----7------7--7------7----7--7--7--9--9-|
A|-7-----7------7--7------7----7--7--7--7--7-|
E|-5-----5------5--5------5----5--5--5--0--0-|


[Chorus]

e|-0----0------0---0-|-0----0-----0---0--|
B|-0----0------0---0-|-0----0-----0---0--|
G|-9----9------9---8-|-8----8-----8---11-|
D|-9----9------9---9-|-9----9-----9---12-|
A|-7----7------7---9-|-9----9-----9---12-|
E|-0----0------0---7-|-7----7-----7---10-|

e|-0----0--------0----0--0-|-0-----0------------0-|
B|-0----0--------0----0--0-|-0-----0------------0-|
G|-11---11-------11---6--6-|-6-----6------------9-|
D|-12---12-------12---7--7-|-7-----7------7-9-9-9-|
A|-12---12-------12---7--7-|-7-----7------7-9-9-7-|
E|-10---10-------10---5--5-|-5-----5------5-7-7-0-|


[Bridge]

e|-------------------|---------------|----------------------|----------------|
B|----------9-----12-|---------9-----|-12-10----9-12-10---9-|-10-8-------7-9-|
G|--------9-----9----|-------9-----9-|-12-11----9-13-11---9-|-11-9--9--9-----|
D|-------------------|---------------|----------------------|-------9--------|
A|-------------------|---------------|----------------------|----------------|
E|-------------------|---------------|----------------------|----------------|


[Middle Bit]

e|-0----0--------0----0---------0-----0---0---0---0---0--|
B|-0----0--------0----0---------0-----0---0---0---0---0--|
G|-9----9--------9----9---------9-----9---9---9---9---9--|
D|-10---10-------10---10--------10----10--10--10--10--10-|
A|-10---10-------10---10--------10----10--10--10--10--10-|
E|-8----8--------8----8---------8-----8---8---8---8---8--|

e|-0----0--------0----0---------0-----0---0---0---0---0--|
B|-0----0--------0----0---------0-----0---0---0---0---0--|
G|-11---11-------11---11--------11----11--11--11--11--11-|
D|-12---12-------12---12--------12----12--12--12--12--12-|
A|-12---12-------12---12--------12----12--12--12--12--12-|
E|-10---10-------10---10--------10----10--10--10--10--10-|

e|-0---0---------0----0-|-0---0--------0----0-----0-|
B|-0---0---------0----0-|-0---0--------0----0-----0-|
G|-9---9---------9----8-|-8---8--------8----8-----4-|
D|-9---9---------9----9-|-9---9--------9----9-----5-|
A|-7---7---------7----9-|-9---9--------9----9-----5-|
E|-0---0---------0----7-|-7---7--------7----7-----3-|

e|-0---0--------0---0---0-|-0---0---------0---0---0-|
B|-0---0--------0---0---0-|-0---0---------0---0---0-|
G|-4---4--------4---4---6-|-6---6---------6---9---9-|
D|-5---5--------5---5---7-|-7---7---------7---9---9-|
A|-5---5--------5---5---7-|-7---7---------7---7---7-|
E|-3---3--------3---3---5-|-5---5---------5---0---0-|

e|-------------0--------|------0--------|--0------------|
B|----------------7-----|---------7-----|--0------------|
G|-----------9--9-------|-----9-9-------|--11-----------|
D|---------9-----9------|-9--9---9------|--12-----------|
A|-------7--------------|-9-------------|--12-----------|
E|----------------------|-7-------------|--10-----------|


************************************

| x dead note

************************************

            
            
Suggest correction
Creating personal tab
Creating personal tab
You can edit any tab online and save it as your Personal.

You can edit, replace or remove any tab part or add personal notes – all changes will be seen only by you.

Personal tabs can be accessed anytime from any device, even offline.
Learn more »
comments
print report bad tab
75 comments total. Showing first comments.
+6 reply
tesla_fan 51 Jan 11, 2006 12:00 PM

hey its all good but , tune down half a step...(says guitar world)..good work

0 reply
BWhite03 10 Jan 11, 2006 03:00 PM

finally someone who put a little work into this song. love the tab!

+1 reply
Pricey550 101 Jan 12, 2006 04:32 AM

cheers lads

guest
You may want to rate the tab now too:
select rating
Wanna post a correction for this tab? Suggest correction