Oops, an error
Loading. Please wait.
We have an official Photograph tab made by UG professional guitarists. Check out the tab »
×
193,462 views 483 this week
43 commentsread comments
1 2 3 4 5
x 67
add to favorites
×
Save as Personal and add changes to this tab that will be seen only by you. Learn more ›
×
You can save this tab as Personal to edit and correct it or add notes. All changes will be seen only by you. Learn more »
launch autoscroll
font size
0
reset
transpose
0
reset
simplify chords
display chords
guitar tuner
backing track
0:00
0:00
edit
Autoscroll
slow
fast
+/-
esc
set tempo
stop
Author
Strumming
There is no strumming pattern for this song yet. and get +5 IQ
just want to say i never made this tab. if i new the name of the person who did i
would put it, but i dont. this what they wrote: OK this is 100 % correct trust me,
I've been studying live videos, and the 
original video, and the audio files I got with this song realley hard. Anyway here
it is

Chords

 Dsus2      A#       C#        G#       F#       G#
|-6---|  |--6--|  |--9---|  |--4--|  |--2--|  |--4--|
|-6---|  |--6--|  |--9---|  |--4--|  |--2--|  |--4--|
|-8---|  |--7--|  |--10--|  |--5--|  |--3--|  |--5--|
|-8---|  |--8--|  |--11--|  |--6--|  |--4--|  |--6--|
|-6---|  |--8--|  |--11--|  |--6--|  |--4--|  |--6--|
|-----|  |--6--|  |--9---|  |--4--|  |--2--|  |--4--|


[Verse 1]

(the other verses are with the same chords):

D#sus2
Look at this photograph
A#
Every time I do it makes me laugh
C#
How did our eyes get so red
G#
And what the hell is on Joey's head
D#sus2
This is where I grew up
A#
I think the present owner fixed it up
C#
I never knew we ever went without
G#
The second floor is hard for sneakin' out
D#sus2
This is where I went to school
A#
Most of the time had better things to do
C#
Criminal record says I broke in twice
G#
I must've done it half a dozen times
D#sus2
I wonder if it's too late
A#
Should I go back and try to graduate
C#
Life's better now than it was back then
G#                              F#         G#
If I was them I wouldn't let me in ooooooh oh god I


[Chorus]

D#sus2
Every memory of looking out the back door
         A#
I had my photo album spread out on my bedroom floor
     C#
It's hard to say It's time to say it
G#
Goodbye, Goodbye
D#sus2
Every memory of walking out the front door
            A#
I found the photo of the friend That I was looking for
     C#
It's hard to say It's time to say it
G#
Goodbye, Goodbye


Melodic part after first chorus verse:

  A#     F#        C#                 F#
E|--------6-------------------------------------||
B|----8-------8----7--6------7--6-----6---------||
G|-----------------------8--------8-----8--6----||
D|----------------------------------------------||
A|----------------------------------------------||
E|----------------------------------------------||


[Bridge]

D#sus2
I miss the town
A#
I miss their faces
F#
You can't erase
G#
You can't replace it
D#sus2
I miss it now
A#
I can't believe it
F#
So hard to stay
G#
Too hard to leave it
D#sus2
If I could relive those days
A#
I know the one thing that would never change


[Outro]

D#sus2
Look at this photograph
A#
Every time I do it makes me laugh
C#                         G#
Every time I do it make me


Any comments e-mail me at metis-juice39@hotmail.com

            
            
Suggest correction
Creating personal tab
Creating personal tab
You can edit any tab online and save it as your Personal.

You can edit, replace or remove any tab part or add personal notes – all changes will be seen only by you.

Personal tabs can be accessed anytime from any device, even offline.
Learn more »
comments
print report bad tab
43 comments total. Showing first comments.
0 reply
khoff2 10 Sep 26, 2005 10:33 AM

It is not 100% correct, or even close. The song is played 1/2 step down and can be played like this:

Chords
Intro (1st time)

|-0---| |--0--| |--0---| |--0--|
|-0---| |--0--| |--0---| |--0--|
|-9---| |--8--| |--7---| |--6--|
|-9---| |--9--| |--7---| |--7--|
|-7---| |--9--| |--5---| |--7--|
|-----| |-----| |------| |-----|

2nd time adds bass line:
|-0---| |--0--| |--0---| |--0--|
|-0---| |--0--| |--0---| |--0--|
|-9---| |--8--| |--7---| |--6--|
|-9---| |--9--| |--7---| |--7--|
|-7---| |--9--| |--5---| |--7--|
|-0---| |--7--| |--5---| |--5--|

0 reply
hot gunn 10 Sep 26, 2005 10:59 PM

its not to accurate, but my guitar is a bit out of tune now

0 reply
Mr_Big_David 10 Sep 27, 2005 06:12 AM

I think it is almost perfect. Only thing is wrong is the tunning. Its HalfStep from standard. But other wise... PERFECT!!!

guest
You may want to rate the tab now too:
select rating
Wanna post a correction for this tab? Suggest correction