Oops, an error
Loading. Please wait.

Rockstar Bass Tab

version 2
version 2

Whole song

24,749 views 27 this week
7 commentsread comments
1 2 3 4 5
excellent!
x 8
add to favorites
launch autoscroll
font size
0
reset
guitar tuner
Autoscroll
slow
fast
+/-
esc
set tempo
stop
Help us to improve Ultimate-Guitar.com Take our survey!
×
Author
Difficulty
intermediate
Nickelback - ROCKSTAR

Tabbed by CONTRABASS JUN '08

For 5-String bass - Standard tuning (B E A D G)

(4-String version below)


FIRST VERSE

G|-------------------------|-------------------------|
D|-------------------------|-------------------------|
A|---------REST------------|-----------REST----------|
E|-------------------------|-------------------------|
B|-------------------------|-------------------------|


G|-------------------------|-------------------------|
D|-------------------------|------------5-3----------|
A|---------REST------------|----------------5----1-3-|
E|-------------------------|-------------------3-----|
B|-------------------------|-------------------------|


G||-------------------------|-------------------------|
D||*-------------------3--5-|-------------------------|
A||---------------5---------|--------------------1--3-|
E||*3---/15-----3---3-------|---------------3---------|
B||-------------------------|-1---/13-----1---1-------|


G|-------------------------|-------------------------||
D|--------------------3--5-|------------5-3---------*||
A|---------------3---------|----------------5---1-3--||  REPEAT x3
E|-1---/13-----1---1-------|-3---/15----------3-----*||
B|-------------------------|-------------------------||



BRIDGE TO CHORUS

G|-----------------------|--------------------------|
D|-----------------------|--------------------------|
A|-1---------------------|-3------------------------|
E|-----------------------|--------------------------|
B|-----------------------|--------------------------|



CHORUS

G||------------------------|-------------------------|
D||*------------------0--5-|--------------------0--3-|
A||------------------------|-1----------1--1-3-------|
E||*3---------3-3--3-------|-------------------------|
B||------------------------|-------------------------|

                                                **
G|------------------------|-------------------------||
D|------------------------|-------------------3-/5-*||
A|-3-----3-----3---3------|-------6-/8--------------||  REPEAT x2
E|-------------------3----|-------------1--1-------*||
B|---------------------1--|-4--4--------------------||

(** Leave out this  /5  second time round)

BRIDGE TO 2ND VERSE

G|------------------------|------------------/12-----|
D|------------------------|--------------------------|
A|-1-----------3----------|--------------------------|
E|------------------------|-3------------------------|
B|------------------------|--------------------------|


G|------------------------|--------------------------|
D|------------------------|---------------5-3--------|
A|-1-----------3----------|-------------------5---1-3|
E|------------------------|-3-------------------3----|
B|------------------------|--------------------------|



2ND VERSE

G||-------------------------|-------------------------|
D||*-------------------3--5-|-------------------------|
A||---------------5---------|--------------------1--3-|
E||*3---/15-----3---3-------|---------------3---------|
B||-------------------------|-1---/13-----1---1-------|


G|-------------------------|-------------------------||
D|--------------------3--5-|------------5-3---------*||
A|---------------3---------|----------------5---1-3--||  REPEAT x2
E|-1---/13-----1---1-------|-3---/15----------3-----*||
B|-------------------------|-------------------------||



BRIDGE TO CHORUS

G|-----------------------|--------------------------|
D|-----------------------|--------------------------|
A|-1---------------------|-3------------------------|
E|-----------------------|--------------------------|
B|-----------------------|--------------------------|



CHORUS

G||------------------------|-------------------------|
D||*------------------0--5-|--------------------0--3-|
A||------------------------|-1----------1--1-3-------|
E||*3---------3-3--3-------|-------------------------|
B||------------------------|-------------------------|

                                                **
G|------------------------|-------------------------||
D|------------------------|-------------------3-/5-*||
A|-3-----3-----3---3------|-------6-/8--------------||   REPEAT x3
E|-------------------3----|-------------1--1-------*||
B|---------------------1--|-4--4--------------------||

(** Leave out this  /5  third time round)

BRIDGE TO MIDDLE 8

G|------------------------|------------------/12-----|
D|------------------------|------------5-------------|
A|-1-----1-0h1-3---3-1-3/5|---------5----------------|
E|-----3------------------|-3------------------------|
B|------------------------|--------------------------|



MIDDLE 8

G|-------------------------|---------------------------|
D|-------------------------|-------------------------8-|
A|------6-----------6----6-|---------------------------|
E|-------------------------|-6--6--------6-----6-6-6---|
B|-4--4----4-4--4-4----4---|---------------------------|


G|-------------------------|---------------------------|
D|-------------------------|---------------------------|
A|------6-----------6----6-|-3-------------------------|
E|-------------------------|-------------1-------------|
B|-4--4----4-4--4-4----4---|---------------------------|



CHORUS

G|------------------------|-------------------------|
D|------------------------|-------------------------|
A|---------REST-----------|----------REST-----------|
E|------------------------|-------------------------|
B|------------------------|-------------------------|


G|------------------------|-------------------------|
D|------------------------|-------------------------|
A|---------REST-----------|----------REST-----------|
E|------------------------|-------------------------|
B|------------------------|-------------------------|


G||------------------------|-------------------------|
D||*------------------0--5-|--------------------0--3-|
A||------------------------|-1----------1-1--3-------|
E||*3---------3-3--3-------|-------------------------|
B||------------------------|-------------------------|

                                                **
G|------------------------|-------------------------||
D|------------------------|-------------------3-/5-*||
A|-3-----3-----3---3------|-------6-/8--------------||   x2
E|-------------------3----|-------------1--1-------*||
B|---------------------1--|-4--4--------------------||

(** Leave out this  /5  second time round)

And FINALLY

G|------------------------|------------------/12-----|
D|------------------------|---------------5----------|
A|-1-----1-0h1-3---3-1-3/5|------------5-------------|
E|-----3------------------|-3------------------------|
B|------------------------|--------------------------|


G|------------------------|--------------------------|
D|------------------------|--------------------------|
A|---------REST-----------|----------REST------------|
E|------------------------|--------------------------|
B|------------------------|--------------------------|

END



4 STRING VERSION (Standard Tuning EADG) Now here as requested!


FIRST VERSE

G|-------------------------|-------------------------|
D|-------------------------|-------------------------|
A|---------REST------------|-----------REST----------|
E|-------------------------|-------------------------|



G|-------------------------|-------------------------|
D|-------------------------|------------5-3----------|
A|---------REST------------|----------------5----1-3-|
E|-------------------------|-------------------3-----|



G||-------------------------|-------------------------|
D||*-------------------3--5-|-------------------------|
A||---------------5---------|-3---1/3-------3----1--3-|
E||*3---/15-----3---3-------|-------------3---3-------|



G|-------------------------|-------------------------||
D|--------------------3--5-|------------5-3---------*||
A|---------------3---------|----------------5---1-3--||  REPEAT x3
E|-1---/13-----1---1-------|-3---/15----------3-----*||




BRIDGE TO CHORUS

G|-----------------------|--------------------------|
D|-----------------------|--------------------------|
A|-1---------------------|-3------------------------|
E|-----------------------|--------------------------|




CHORUS

G||------------------------|-------------------------|
D||*------------------0--5-|--------------------0--3-|
A||------------------------|-1----------1--1-3-------|
E||*3---------3-3--3-------|-------------------------|


                                                **
G|------------------------|-------------------------||
D|------------------------|-------------------3-/5-*||
A|-3-----3-----3---3---3--|-6--6--6-/8--------------||  REPEAT x2
E|-------------------3----|-------------1--1-------*||


(** Leave out this  /5  second time round)

BRIDGE TO 2ND VERSE

G|------------------------|------------------/12-----|
D|------------------------|--------------------------|
A|-1-----------3----------|--------------------------|
E|------------------------|-3------------------------|



G|------------------------|--------------------------|
D|------------------------|---------------5-3--------|
A|-1-----------3----------|-------------------5---1-3|
E|------------------------|-3-------------------3----|




2ND VERSE

G||-------------------------|-------------------------|
D||*-------------------3--5-|-------------------------|
A||---------------5---------|-3---1/3-------3----1--3-|
E||*3---/15-----3---3-------|-------------3---3-------|



G|-------------------------|-------------------------||
D|--------------------3--5-|------------5-3---------*||
A|---------------3---------|----------------5---1-3--||  REPEAT x2
E|-1---/13-----1---1-------|-3---/15----------3-----*||




BRIDGE TO CHORUS

G|-----------------------|--------------------------|
D|-----------------------|--------------------------|
A|-1---------------------|-3------------------------|
E|-----------------------|--------------------------|




CHORUS

G||------------------------|-------------------------|
D||*------------------0--5-|--------------------0--3-|
A||------------------------|-1----------1--1-3-------|
E||*3---------3-3--3-------|-------------------------|


                                                **
G|------------------------|-------------------------||
D|------------------------|-------------------3-/5-*||
A|-3-----3-----3---3---3--|-6--6--6-/8--------------||   REPEAT x3
E|-------------------3----|-------------1--1-------*||


(** Leave out this  /5  third time round)

BRIDGE TO MIDDLE 8

G|------------------------|------------------/12-----|
D|------------------------|------------5-------------|
A|-1-----1-0h1-3---3-1-3/5|---------5----------------|
E|-----3------------------|-3------------------------|




MIDDLE 8

G|-------------------------|---------------------------|
D|-------------------------|-------------------------8-|
A|-6---6----6----6-6-----6-|---------------------------|
E|--------6----6-------6---|-6--6--------6-----6-6-6---|



G|-------------------------|---------------------------|
D|-------------------------|---------------------------|
A|-6---6----6----6-6-----6-|-3-------------------------|
E|--------6----6-------6---|-------------1-------------|




CHORUS

G|------------------------|-------------------------|
D|------------------------|-------------------------|
A|---------REST-----------|----------REST-----------|
E|------------------------|-------------------------|



G|------------------------|-------------------------|
D|------------------------|-------------------------|
A|---------REST-----------|----------REST-----------|
E|------------------------|-------------------------|



G||------------------------|-------------------------|
D||*------------------0--5-|--------------------0--3-|
A||------------------------|-1----------1-1--3-------|
E||*3---------3-3--3-------|-------------------------|


                                                **
G|------------------------|-------------------------||
D|------------------------|-------------------3-/5-*||
A|-3-----3-----3---3---3--|-6--6--6-/8--------------||   x2
E|-------------------3----|-------------1--1-------*||


(** Leave out this  /5  second time round)

END

G|------------------------|------------------/12-----|
D|------------------------|---------------5----------|
A|-1-----1-0h1-3---3-1-3/5|------------5-------------|
E|-----3------------------|-3------------------------|



G|------------------------|--------------------------|
D|------------------------|--------------------------|
A|---------REST-----------|----------REST------------|
E|------------------------|--------------------------|
Suggest correction
What's this?
You can suggest a correction to this tab. Community and Mods will review your correction and vote to approve or reject it.
comments
print report bad tab
7 comments total. Showing first comments.
0 reply
vershell 11 wrote on August 23 2008, 08:44 pm

We'd love the 4 string version! Thanks

0 reply
lozzanator 12 wrote on September 30 2008, 04:56 am

bring on the 4 string version!

0 reply
SoftParade1967 1,226 wrote on September 30 2008, 06:04 pm

Could you make a four string version? thatd be awesome.

guest
You may want to rate the tab now too:
select rating
Please do not post tabs as comments. Select "correction" instead!