Oops, an error
Loading. Please wait.

Satellite Bass Tab

16 views 3 this week
no commentswrite comment
1 2 3 4 5
3 more votes to show rating
add to favorites
launch autoscroll
font size
0
reset
guitar tuner
Autoscroll
slow
fast
+/-
esc
set tempo
stop
Help us to improve Ultimate-Guitar.com Take our survey!
×
Author
Difficulty
Tuning
novice
D A D G B E
[Intro]
No Bass

[Verse]
No Bass

[Pre-Chorus]
"Dance around this Bedroom...."
G|---------------------------------------------------------------------------|
D|---------------------------------------------------------------------------|
A|-2~------------------------------------------------------------------------| x2
D|------4~---6~---2~---------------------------------------------------------|

"You can be my whole world..."
G|---------------------------------------------------------------------------|
D|---------------------------------------------------------------------------|
A|---------2-2-2-2-----------------------------------------------------------|
D|-6-6-6-6---------2-2-2-2-2-2-2-2-6-6-6-6-4-4-4-4-2-2-2-2-2-----------------|

[Chorus]
"Dance around this room...."
G|---------------------------------------------------------------------------|
D|---------------------------------------------------------------------------|
A|-2-2-2-2-------------------------2-2-2-2-----------------------------------|
D|---------4-4-4-4-6-6-6-6-2-2-2-2---------4-4-4-4-6-6-6-6-2-2-2-2-----------|

[Verse]
(you can wait one bar, if you like to)
G|---------------------------------------------------------------------------
D|---------------------------------------------------------------------------
A|-----------------2-2-2-2-2-2-2-2-----------------4-4-4-4-4-4-4-4-----------
D|-6-6-6-6-6-6-6-6-----------------4-4-4-4-4-4-4-4---------------------------

G|-----------------------------------------------------------------------------|
D|-----------------------------------------------------------------------------|
A|-------------------2-2-2-2-2-2-2-2-----------------4-4-4-4-4-4-4-4-----------|
D|---6-6-6-6-6-6-6-6-----------------4-4-4-4-4-4-4-4---------------------------|

[Pre-Chorus]
G|----------------------------------------------------------------------------------------|
D|----------------------------------------------------------------------------------------|
A|----------------------------------------------------------------------------------------|
D|-2--2--2--2--2--2--2--2---4--4--4--4--4--4--4--4---2--2--2--2--2--2--2--2---4--4--4--4~-|

[Chorus] part 1
"Dance around this Bedroom...."
G|---------------------------------------------------------------------------|
D|---------------------------------------------------------------------------|
A|-2-2-2-2-------------------------2-2-2-2-----------------------------------|
D|---------4-4-4-4-6-6-6-6-2-2-2-2---------4-4-4-4-6-6-6-6-2-2-2-2-----------|

[Chorus] part 2
"You can be my whole world..."
G|---------------------------------------------------------------------------|
D|---------------------------------------------------------------------------|
A|---------2-2-2-2-----------------------------------------------------------|
D|-6-6-6-6---------2-2-2-2-2-2-2-2-6-6-6-6-4-4-4-4-2-2-2-2-2-----------------|

[Chorus] part 1
"Dance around this room...."
G|---------------------------------------------------------------------------|
D|---------------------------------------------------------------------------|
A|-2-2-2-2-------------------------2-2-2-2-----------------------------------| x2
D|---------4-4-4-4-6-6-6-6-2-2-2-2---------4-4-4-4-6-6-6-6-2-2-2-2-----------|

[Bridge]
No Bass

[Chorus] part 1
"Dance around this room...."
G|---------------------------------------------------------------------------|
D|---------------------------------------------------------------------------|
A|-2-2-2-2-------------------------2-2-2-2-----------------------------------| x4
D|---------4-4-4-4-6-6-6-6-2-2-2-2---------4-4-4-4-6-6-6-6-2-2-2-2-----------|

************************************

| ~  Vibrato

************************************
Suggest correction
Give kudos to tab author, rate the tab!
1 2 3 4 5
comments
print report bad tab
guest
You may want to rate the tab now too:
select rating
Wanna post a correction for this tab? Suggest correction