Oops, an error
Loading. Please wait.

Saturday Nights Alright For Fighting tab

version 1
version 1

Whole song

Interactive

5,741 views 1 this week
3 commentsread comments
1 2 3 4 5
1 last vote to show rating
add to favorites
×
Save as Personal and add changes to this tab that will be seen only by you. Learn more ›
×
You can save this tab as Personal to edit and correct it or add notes. All changes will be seen only by you. Learn more »
launch autoscroll
font size
0
reset
how to read this tab
guitar tuner
edit
Autoscroll
slow
fast
+/-
esc
set tempo
stop
Song: Saturday Night's Alright (For a Fight)
Band: Nickelback
Tuning: Drop D

this is my first tab and its just a slight correction to the others, but I think it 
right.  And comments are suggestions let me know.

Intro

e|------------------------------------------------------|
B|---10-10-9---10-10--9---10-10-9-------6-6-5--6-6-5----|
G|----9--9-9----9--9--9----9--9-9-------5-5-5--5-5-5----|
D|------------------------------------------------------|
A|------------------------------------------------------|
D|------------------------------------------------------|


Verse

e|------------------------------------------------------|
B|------------------------------------------------------|
G|------------------------------------------------------|
D|--7-77777---7/5-55555---5p0-00000---0h5---55555-------|
A|--7-77777---7/5-55555---5p0-00000---0h5---55555-------|
D|--7-77777---7/5-55555---5p0-00000---0h5---55555-------| 2X
      pm...       pm...       pm...         pm...


e|-----------------------------------------------|
B|-----------------------------------------------|
G|-----------------------------------------------|
D|---555555555555555555555555--------------------|
A|---555555555555555555555555--------------------|
D|---555555555555555555555555--------------------|
  "WHoooooaaaa"


Chorus
e|-----------------------------------------------|
B|-----------------------------------------------|
G|--5555555---0000000----------------------------|
D|--5555555---0000000----------------------------|
A|--5555555---0000000----------------------------|
D|--5555555---0000000-4X-------------------------|


Last part of Chorus
e|----------------------------------------------------|
B|----------------------------------------------------|
G|----------------------------------------------------|
D|--7777777----------12-10-9-77-----------------------|
A|--7777777----------12-10-9-77-----------------------|
D|--7777777----------12-10-9-77-----------------------|
"Alright, Alright!"

Bridge
e|------------------------------------------------------|
B|---10-10-9---10-10--9---10-10-9-------6-6-5--6-6-5----|
G|----9--9-9----9--9--9----9--9-9-------5-5-5--5-5-5----|
D|------------------------------------------------------|
A|------------------------------------------------------|
D|------------------------------------------------------|

I dont know the solo, if someone could tab it it would be much appreciated

The strumming patterns aren't on there but if you listen to the song it's easy to figure 
 It's a simple song but fun to play.  I think this sounds best, any questions or 
would be great, u can email at lasley05@hotmail.com

            
            
Suggest correction
Creating personal tab
Creating personal tab
You can edit any tab online and save it as your Personal.

You can edit, replace or remove any tab part or add personal notes – all changes will be seen only by you.

Personal tabs can be accessed anytime from any device, even offline.
Learn more »
Give kudos to tab author, rate the tab!
1 2 3 4 5
comments
print report bad tab
3 comments total.
-1 reply
bballdevil187 10 Apr 09, 2007 07:21 AM

It's called "Saturday Night's Alright (For Fighting)"

+1 reply
PurelyCanadian 52 Sep 15, 2007 09:29 AM

The last comment has nothing to do with the tab itself.. so ignore it. The tab is alright, could include more guitars, and the chorus isn't right, but it's an okay tab.

0 reply
Rocker_94 200 Mar 06, 2008 11:45 AM

Whole song is full of mistakes.

guest
You may want to rate the tab now too:
select rating
Wanna post a correction for this tab? Suggest correction