Oops, an error
Loading. Please wait.

Savin Me Bass Tab

version 2
version 2

Whole song

5,663 views 6 this week
2 commentsread comments
1 2 3 4 5
accurate
x 3
add to favorites
launch autoscroll
font size
0
reset
guitar tuner
Autoscroll
slow
fast
+/-
esc
set tempo
stop
Help us to improve Ultimate-Guitar.com Take our survey!
×
Author
Difficulty
Tuning
novice
C G C F A D
           tabber: James Fitzpatrick (a.k.a. Westchesterbass)
           Artist:Nickelback
           Song: Savin Me
           Album/track: All the Right Reasons track 5
           Timing: 4/4
*****************************************************************************

Intro(no bass) x2



Verse

F#|-----------------------|
 C|-----------------------|
 B|1----------------------|  x3
 C|----2-2---5----0-0---0-|

Pre-chorus

F#|---------------|
 C|---------------|
 B|1--------------|  x2
 C|----2-2---5----|

  4 meas rest

Chorus

F#|---------------------------|
 C|---------------------------|  1st line
 B|1-1-1-1--------------------|
 C|-------2-2-2-2-5-5-5-5-0-2-|

F#|---------------------------|
 C|---------------------------| 
 B|1-1-1-1--------------------|
 C|-------2-2-5---------------|


Verse x3
Pre-chorus x2
Chorus x2
1st line of chorus x2 then full chorus 0nce (solo)

   6 meas rest

interlude with pre-chorus chord progression

F#|--------------------------------|
 C|--------------------------------|
 B|5-5-5-5---------3-3-3-3---------|  x2
 C|--------2-2-2-2---------5-5-5-5-|



1st line of Chorus x2, full chorus once and then no bass for rest of song


That's it. Great song off the album.
Suggest correction
Give kudos to tab author, rate the tab!
1 2 3 4 5
comments
print report bad tab
2 comments total.
0 reply
Bassman454 31 wrote on February 27 2008, 10:07 am

sound a little of but good!!!

0 reply
westchesterbass 31 wrote on April 30 2008, 07:50 pm

by accident i put the g string (2nd lowest pitched) as b.
oops!

guest
You may want to rate the tab now too:
select rating
Please do not post tabs as comments. Select "correction" instead!