Oops, an error
Loading. Please wait.
We have an official Savin Me tab made by UG professional guitarists. Check out the tab »
×
80,365 views 27 this week
2 commentsread comments
1 2 3 4 5
x 11
add to favorites
×
Save as Personal and add changes to this tab that will be seen only by you. Learn more ›
×
You can save this tab as Personal to edit and correct it or add notes. All changes will be seen only by you. Learn more »
launch autoscroll
font size
0
reset
transpose
0
reset
display chords
guitar tuner
edit
Autoscroll
slow
fast
+/-
esc
set tempo
stop
Strumming
There is no strumming pattern for this song yet. and get +5 IQ
Nickelback
Saving Me
All The Right Reasons
2005
Submitted by: paramore_fans@yahoo.com

Key: Eb

Tuning: Standard EADGBe

Chords used:
G# - 466544
Eb - x68886
Fm - 133111
Cm - x35543
Bb - x13331


Intro: G#-Eb-Fm-Cm-G#-Eb-Fm--

Guitar 2:
     G#      Eb       Fm       Cm
e|-------|---------|-------|---------|
B|-------|---------|-------|---------|
G|-------|---------|-------|---------|
D|---5-3-|---5-3-5-|---5-3-|---1-3-0-|
A|-------|-6-------|-------|-3-------|
E|-4-----|---------|-1-----|---------|

     G#      Eb          Fm
e|-------|---------|-------------|
B|-------|---------|-------------|
G|-------|---------|-------------|
D|---5-3-|---5-3-5-|---5-3---5-3-|
A|-------|-6-------|-------------|
E|-4-----|---------|-1-----1-----|


Verse 1:
G#
Prison gates wont 
Eb
open up for me
Fm
  On these hands and 
Cm
knees Im crawling
G#    Eb        Fm
Oh, I reach for you
        G#
Well Im terrified of 
Eb
these four walls
      Fm
These iron bars can't 
Cm
hold my soul in
G#    Eb      Fm(hold)
All I need is you
Come please Im calling
    G#    Eb        Fm(hold)
And oh I scream for you
Hurry Im falling
I'm falling


Chorus 1:
Cm      Eb       Bb
Show me what its like
          Fm
To be the last one standing
    Cm       Eb         Bb
And teach me wrong from right
And I'll show you 
Fm
what I can be
    G#
And say it for me
Eb
Say it to me
Fm
  And I'll leave this 
Cm
life behind me
G#
Say it if its 
Eb           Fm
worth saving me


Verse 2:
G#
Heavens gates won't 
Eb
open up for me
Fm
  With these broken 
Cm
wings Im falling
G#        Eb     Fm
And all I see is you
      G#
These city walls ain't 
Eb
got no love for me
Fm
  Im on the ledge of the
Cm
eighteenth story
    G#    Eb        Fm(hold)
And oh I scream for you
Come please Im calling
    G#    Eb        Fm(hold)
And all I need from you
Hurry Im falling
I'm falling


Chorus 2:
Cm      Eb       Bb
Show me what its like
          Fm
To be the last one standing
    Cm       Eb         Bb
And teach me wrong from right
And I'll show you 
Fm
what I can be
    G#
And say it for me
Eb
Say it to me
Fm
  And I'll leave this 
Cm
life behind me
G#
Say it if its 
Eb           Fm
worth saving me
Hurry Im falling


Guitar Solo: G#-Eb-Fm-Cm- x3, G#-Eb-Fm(hold)
Yeah, yeah-hey


     G#      Eb       Fm       Cm
e|-------|---------|-------|---------|
B|-------|---------|-------|---------|
G|-------|---------|-------|---------|
D|---5-3-|---5-3-5-|---5-3-|---1-3-0-|
A|-------|-6-------|-------|-3-------|
E|-4-----|---------|-1-----|---------|


Verse 3:
G#    Eb      Fm(hold)
All I need is you
Come please Im calling
    G#    Eb        Fm(hold)
And oh I scream for you
Hurry Im falling
I'm falling


(Repeat Chorus 2)


Outro:
    G#
And say it for me
Eb
Say it to me
Fm
  And I'll leave this 
Cm
life behind me
G#
Say it if its 
Eb           Fm(hold)
worth saving me


Piano: G#-Eb-Fm-Cm-G#-Eb-Fm(hold)

            
            
Suggest correction
Creating personal tab
Creating personal tab
You can edit any tab online and save it as your Personal.

You can edit, replace or remove any tab part or add personal notes – all changes will be seen only by you.

Personal tabs can be accessed anytime from any device, even offline.
Learn more »
comments
print report bad tab
2 comments total.
0 reply
bubaha 10 Mar 27, 2014 11:54 AM, edited on April 16 2016, 02:42 pm

Thanks for the chords!

0 reply
Papierhut 185 Aug 11, 2016 11:13 AM

Not perfect some slides, etc. are missing.

e|--------------------------------------|
B|--------------------------------------|
G|--------------------------------------|
D|---5-3-------5-3-5----5-3--5-------3--|
A|--------3-6-6----------------3-3--6-3-|
E|-4------------------1-----------------|

e|--------------------------------------|
B|--------------------------------------|
G|--------------------------------------|
D|---5-3-------5-3-5----5-3--5-----5-3--|
A|--------3-6-6----------------3-3----3-|
E|-4------------------1-----------------|

guest
You may want to rate the tab now too:
select rating
Wanna post a correction for this tab? Suggest correction