Oops, an error
Loading. Please wait.

Side Of A Bullet intro tab

version 2
version 2

Intro

Whole song

Interactive

6,790 views 1 this week
3 commentsread comments
1 2 3 4 5
x 3
add to favorites
×
Save as Personal and add changes to this tab that will be seen only by you. Learn more ›
×
You can save this tab as Personal to edit and correct it or add notes. All changes will be seen only by you. Learn more »
launch autoscroll
font size
0
reset
how to read this tab
guitar tuner
edit
Autoscroll
slow
fast
+/-
esc
set tempo
stop
Author
     SIDE OF A BULLET
  TUNING IS 1 1/2 STEP DOWN LOW TO HIGH:(C,G,C,F,A,D)

D---------------------------------|----------------------------------|
A---------------------------------|----------------------------------|
F-------------5-------------------|-----5-------7--------------------|
C-2-2-2-2-2-2-5-2-2-2-6-----5---6-|-2-2-5-2-2-2-7--2-2-2-6-----5---6-|
G-2-2-2-2-2-2-3-2-2-2-6-0-0-5-0-6-|-2-2-3-2-2-2-5--2-2-2-6-0-0-5-0-6-|
C-0-0-0-0-0-0---0-0-0-4-0-0-3-0-4-|-0-0---0-0-0----0-0-0-4-0-0-3-0-4-|
 INTRO: P.M.                           P.M. PLAY THIS 2X'S AND ON THE 3RD
                                             TIME HE ENDS IT WITH SOMETHING I
 D----------------------------------|       HAVENT FIGURED OUT YET.IM STILL
 A----------------------------------|       WORKING ON IT.
 F-----------------------------5-7--|
 C-2-2-2----2-2-----2-2-2-2-2--5-7--|
 G-2-2-2----2-2-----2-2-2-2-2--3-5--|
 C-0-0-0-1B-0-0--1B-0-0-0-0-0-------|                                       
          P.M.
THIS IS THE PART THAT SAYS WHY DID YOU PUT HIM THROUGH IT;YOUR BROTHER WATCHED HIM DO
IT.HOPE THIS HELPS ANY CORRECTION OR COMMENTS SEND THEM TO RIPDBAG120804@AOL.COM

            
            
Suggest correction
Creating personal tab
Creating personal tab
You can edit any tab online and save it as your Personal.

You can edit, replace or remove any tab part or add personal notes – all changes will be seen only by you.

Personal tabs can be accessed anytime from any device, even offline.
Learn more »
Give kudos to tab author, rate the tab!
1 2 3 4 5
comments
print report bad tab
3 comments total.
0 reply
nickelback_fan 80 Dec 08, 2005 04:16 PM

this sounds pretty much like cool right on man

0 reply
Audio_State 30 Dec 12, 2005 11:44 AM

R.I.P. DIMEBAG

0 reply
monkeyUS@aol 20 Feb 01, 2006 01:25 PM

Where the hell is my solo where else AM I suppost to go Side of a bullet the best song on nickleback's new CD COME ON PEOPLE!!!!!!!!!!!!!!!!!!

guest
You may want to rate the tab now too:
select rating
Wanna post a correction for this tab? Suggest correction