Oops, an error
Loading. Please wait.

Side Of A Bullet solo tab

version 1
version 1

Solo

Whole song

Interactive

8,908 views 6 this week
3 commentsread comments
1 2 3 4 5
x 3
add to favorites
×
Save as Personal and add changes to this tab that will be seen only by you. Learn more ›
×
You can save this tab as Personal to edit and correct it or add notes. All changes will be seen only by you. Learn more »
launch autoscroll
font size
0
reset
how to read this tab
guitar tuner
edit
Autoscroll
slow
fast
+/-
esc
set tempo
stop
Author
Difficulty
E----------------------------------------|
B-15-15-15-15----------------------------|
G-15-14----14-12-12----------------------|
D-------------------14-14-12----------12-|
A----------------------------14-12-12----|
E----------------------------------------|

E-------------------------------------------------------------------|
B-------------------------------------------------------------------|
G----------12H14-13-------------------12-12-12----------12H14-13----|
D-14-14-14----------14-14-------12H14----------14-14-14----------14-|
A-------------------------12H14-------------------------------------|
E-------------------------------------------------------------------|

E------------19-20-22-20-19----19-20-22-20-19----19-20-22-20-19-|
B----12---17----------------22----------------22----------------|
G-------5-------------------------------------------------------|
D-14------------------------------------------------------------|
A---------------------------------------------------------------|
E---------------------------------------------------------------|

E-19-20-22-20-19----19-20-22-20-19----19-20-22-20-19----19-20-22-20-19-|
B----------------22----------------22----------------22----------------|
G----------------------------------------------------------------------|
D----------------------------------------------------------------------|
A----------------------------------------------------------------------|
E----------------------------------------------------------------------|

E----19-20-24-24-22-22-22-22---|
B-22---------------------------|
G------------------------------|
D------------------------------|
A------------------------------|
E------------------------------|

Hope You Have Fun With This
Keep On Keepen On

            
            
Suggest correction
Creating personal tab
Creating personal tab
You can edit any tab online and save it as your Personal.

You can edit, replace or remove any tab part or add personal notes – all changes will be seen only by you.

Personal tabs can be accessed anytime from any device, even offline.
Learn more »
Give kudos to tab author, rate the tab!
1 2 3 4 5
comments
print report bad tab
3 comments total.
0 reply
monkeyUS@aol 20 Feb 14, 2006 10:34 AM

I have one thing to say thank youuuuuuuuu.Finally someone that knows something about writing tabs did this I love NICKELBACK!!!!!!!!!!!!!!!

0 reply
yannbo8 10 Mar 24, 2007 01:03 AM

R.I.P dimebag darrel
oh and nice tab

0 reply
drinks1992 41 Oct 21, 2010 10:35 PM

really good tab. miss you dimebag

guest
You may want to rate the tab now too:
select rating
Wanna post a correction for this tab? Suggest correction