Oops, an error
Loading. Please wait.

Side Of A Bullet Bass Tab

version 2
version 2

Whole song

Interactive

1,521 views 1 this week
no commentswrite comment
1 2 3 4 5
please rate
add to favorites
launch autoscroll
font size
0
reset
guitar tuner
Autoscroll
slow
fast
+/-
esc
set tempo
stop
Help us to improve Ultimate-Guitar.com Take our survey!
×
Author
Band: Nickelback
Song: Side Of A Bullet
Album: All the Right Reasons
Tuning: 5-String tune you E 1step down B F# A D G

Song takes some rhytm practice

Intro first only guitar then

G  ---------------------------------------------|
D  ---------------------------------------------|
A  ---------------------------------------------|
F# -----------------5------------------3-----5--|
B  -00-000-000-05653---00-000-00-6-5-3---5-3----|

verse                                       (play this 2 times............)
G  -----|-------------|-----|-------------|-------------------|-------------|
D  -----|-------------|-----|-------------|-------------------|-------------|
A  -----|-------------|-----|-------------|-------------------|-------------| try to get the rythm
F# -----|-----3----5--|-----|-----3----5--|-------------------|-----3----5--|
B  -00--|--653--53----|-00--|--653--53----|-00--00-00-0-10-0--|--653--53----|

pre Chorus
G  -------------------------|
D  -------------------------|
A  -------------------------| 4x
F# -----------------3----5--|
B  -00-3^--0-3^--653--53----|

Chorus
G  -------------------------------|--------------------------------| 2x
D  -------------------------------|--------------------------------|
A  -------------------------------|--------------------------------| listen for perfect timing
F# -------10---12---------3-------|-------10---12-------3-----5----|
B  -00-12----0----10---03----053--|--00-12---0----10--03---03------|

Only guitar again
Intro
Verse
pre Chorus 4x
Chorus 2x
Only guitar again

Guitar solo

intro
last 2 bars of verse 2x
Pre chorus 2x
Chorus 2x
Intro 4x

"this songs is in memorie of dimebag from Pantera"

Have Fun greetings ClosedRoad
Suggest correction
Give kudos to tab author, rate the tab!
1 2 3 4 5
comments
print report bad tab
guest
You may want to rate the tab now too:
select rating
Please do not post tabs as comments. Select "correction" instead!