Oops, an error
Loading. Please wait.

Side Of A Bullet Bass Tab

version 3
version 3

Whole song

Interactive

242 views 1 this week
no commentswrite comment
1 2 3 4 5
please rate
add to favorites
launch autoscroll
font size
0
reset
guitar tuner
Autoscroll
slow
fast
+/-
esc
set tempo
stop
Help us to improve Ultimate-Guitar.com Take our survey!
×
Author
Difficulty
intermediate
Side of a Bullet - Nickelback
Bass Tab - 5 String

 ==================
|| R - REST       ||
|| = - HOLD       ||
|| \ - SLIDE DOWN ||
 ==================

*Note* each ||---|---|| is 2 bars (4 counts each) which are measured in 32nd notes

//First 4 Bars are SILENT//

//INTRO// X2
G||-----------------------------------|-----------------------------------||
D||--------------0---------------2----|-----------------------------------||
A||-----------------------------------|-----------------------------------||
E||-----------------------------------|------0---------------1---0--------||
B||--0---0---0-------0---0---0--------|--0-------0---3---0-----------4----||

//VERSE//
G||-----------------------------------|-----------------------------------||
D||-----------------------------------|-----------------------------------||
A||-----------------------------------|------------------0-------0---2----|| X2
E||-----------------------------------|------0----------------------------||
B||--0---0---R------------------------|----------3---0-------0------------||

G||-----------------------------------|-----------------------------------||
D||-----------------------------------|-----------------------------------||
A||-----------------------------------|------------------0-------0---2----|| X2
E||-----------------------------------|------0----------------------------||
B||--0---0---R---0-0---0-0---0---0----|--0-------3---0-------0------------||

//PRE-CHORUS// X4
G||-----------------------------------|-----------------------------------||
D||-----------------------------------|-----------------------------------||
A||-----------------------------------|------------------0-------0---2----||
E||-----------------------------------|------0----------------------------||
B||--0---0---0---3-------0---0---3===-|--====----3---0-------0------------||

//CHORUS// X4
G||-----------------------------------|-----------------------------------||
D||-----------------------------------|-----------------------------------||
A||--------------0---------------2===-|--====------------0-------0---2----||
E||-----------------------------------|-----------------------------------||
B||--0-------0-----------3---0--------|------5--\3---0-------0------------||

//PRO-CHORUS 1//
G||-----------------------------------|-----------------------------------||
D||-----------------------------------|-----------------------------------||
A||-----------------------------------|-----------------------------------||
E||------------------------------0----|------0---------------1---0--------||
B||--0---0---R-------0---0---0--------|--0-------0---3---0-----------4----||

G||-----------------------------------|-----------------------------------||
D||--------------0---------------2----|-----------------------------------||
A||-----------------------------------|-----------------------------------|| X2
E||-----------------------------------|------0---------------1---0--------||
B||--0---0---0-------0---0---0--------|--0-------0---3---0-----------4----||

G||-----------------------------------|-----------------------------------||
D||--------------0---------------2----|-----------------------------------||
A||-----------------------------------|------------------0-------0---2----||
E||-----------------------------------|------0----------------------------||
B||--0---0---0-------0---0---0--------|--0-------0---0-------0------------||

//VERSE//

//PRE-CHORUS// X4

//CHORUS// X4

//PRO-CHORUS 2//
G||-----------------------------------|-----------------------------------||
D||-----------------------------------|-----------------------------------||
A||-----------------------------------|-----------------------------------||
E||------------------------------0----|------0---------------1---0--------||
B||--0---0---R-------0---0---0--------|--0-------0---3---0-----------4----||

G||-----------------------------------|-----------------------------------||
D||--------------0---------------2----|-----------------------------------||
A||-----------------------------------|-----------------------------------||
E||-----------------------------------|------0---------------1---0--------||
B||--0---0---0-------0---0---0--------|--0-------0---3---0-----------4----||

//SOLO//
G||-----------------------------------|-----------------------------------|| ]
D||-----------------------------------|-----------------------------------|| ]
A||-----------------------------------|-----------------------------------|| ]
E||------------------------------0----|------0---------------1---0--------|| ]
B||--0---0---R-------0---0---0--------|--0-------0---3---0-----------4----|| ]
                                                                             ] X2
G||-----------------------------------|-----------------------------------|| ]
D||--------------0---------------2----|-----------------------------------|| ]
A||-----------------------------------|-----------------------------------|| ]
E||-----------------------------------|------0---------------1---0--------|| ]
B||--0---0---0-------0---0---0--------|--0-------0---3---0-----------4----|| ]

G||-----------------------------------|-----------------------------------||
D||-----------------------------------|-----------------------------------||
A||-----------------------------------|------------------0-------0---2----|| X2
E||-----------------------------------|------0----------------------------||
B||--0---0---0---3-------0---0---3===-|--====----3---0-------0------------||

//CHORUS// X4

//PRO-CHORUS 1//

//OUTRO//
G||-----------------------------------||
D||-----------------------------------||
A||-----------------------------------||
E||-----------------------------------||
B||--0---0---R------------------------||

//END SONG//
Suggest correction
What's this?
You can suggest a correction to this tab. Community and Mods will review your correction and vote to approve or reject it.
comments
We did not receive enough feedback on this tab! Please rate:
print report bad tab
1 2 3 4 5
guest
You may want to rate the tab now too:
select rating
Please do not post tabs as comments. Select "correction" instead!