Oops, an error
Loading. Please wait.
We have an official Someday tab made by UG professional guitarists. Check out the tab »
×
853 views 12 this week
1 commentread comment
1 2 3 4 5
2 more votes to show rating
add to favorites
×
Save as Personal and add changes to this tab that will be seen only by you. Learn more ›
×
You can save this tab as Personal to edit and correct it or add notes. All changes will be seen only by you. Learn more »
launch autoscroll
font size
0
reset
how to read this tab
guitar tuner
backing track
0:00
0:00
edit
Autoscroll
slow
fast
+/-
esc
set tempo
stop
-------------------------------------------------------------------------------
                             Someday Acoustic - Nickelback
-------------------------------------------------------------------------------
Tabbed by: jesusonti96
E-mail: jesusontiveros903@hotmail.com

Tuning:Drop C


Hola qué tal! Aquí les tengo esta canción de Nickelback llamada "Someday".
aquí están las tabs y los acordes que lleva la canción original.
Espero les guste!

/ = slide
b = Bend
h = Hammer on
x = Mute note

INTRO DE TYMMMMMMMMMMMMMMMAY!
La primera parte es (x3)

    Bm                     G                      A                         D

D--------------------0----------------------------------------------------------------------------|
A------------4----------------------0-----0-----------------0-------------------------5-----------|
F-------6------6----------------2-----2-----------------4-----4---4---------------4-----4---------|
C-----6---6-------6-----------2---2-----2-------------4---4-----4---------------2---2-------------|
G---4----------------------0------------------------2----------------------------------------0--4-|
C----------------------------------------------------------------------------2------------4-------|

            Bm                     G         G     A

D--------------------0-----------------------0-x---0---------------|
A------------4-----------------------0-------0-x---0---------------|
F-------6------6-----------------2-----2-----2-x---4---------------|Comienza la canción.
C-----6---6-------6------------2---2---------2-x---4---------------|
G---4-----------------------0----------------0-x---2---------------|
C--------------------------------------------x-x---x---------------|

VERSO                                                Este es el pequeño intro que toca Ryan
How the hell did we wind up like this?                        D----------------------------|
Why weren't we able, to see the signs that we missed          A-------------------4-h5-----|
And try turn the tables                                       F----------4---4-h6----------|
                                                              C-----4-h6---6---------------|
I wish you'd unclench your fists, and unpack your suitcase    G----------------------------|
Lately there's been too much of this                          C----------------------------|
But don't think it's too late

              Bm         G        A            D           Después Ryan toca esto en el verso
D----x-x-0-0-0-0------0-0-0-0------0-0-0-0------x-x-x-x-- D------------------------------------|
A----x-x-0-0-0-0------0-0-0-0------0-0-0-0------5-5-5-5-- A----------5-4-5-4-5-4-5-4-----5-4---|
F----x-x-6-6-6-6------2-2-2-2------4-4-4-4------4-4-4-4-- F----------6-6-6-6-6-6-6-6---4-----4-|x2
C----x-x-6-6-6-6------2-2-2-2------4-4-4-4------2-2-2-2-- C------------------------------------|
G----x-x-4-4-4-4------0-0-0-0------2-2-2-2------2-2-2-2-- G------------------------------------|
C----x-x-x-x-x-x------x-x-x-x------x-x-x-X------2-2-2-2-- C------------------------------------|


Todo se toca hasta el pre-coro que es...

Nothing's wrong, just as long as
You know that someday I will...

           E                  A
D----------------------0-0-0-0-0---|
A----------------------0-0-0-0-0---|
F----------------------4-4-4-4-4---|
C---4-4-4-4-4-4-4-4----4-4-4-4-4---|
G---4-4-4-4-4-4-4-4----2-2-2-2-2---|
C---4-4-4-4-4-4-4-4----x-x-x-x-x---|

CORO

Someday, somehow
I'm gonna make it all right but not right now


       G          D          A          E        Esta parte es la que toca Ryan en el coro
D---0-0-0-0----x-x-x-x----0-0-0-0----0-0-0-0-------- D-------------4--------------------|
A---0-0-0-0----5-4-5-5----0-0-0-0----0-0-0-0-------- A---------5--------------5---7-----|
F---2-2-2-2----4-4-4-4----4-4-4-4----x-x-x-x-------- F----4-h6---6-------4-h6---6-------|
C---2-2-2-2----2-2-2-2----4-4-4-4----4-4-4-4-------- C----------------------------------|
G---0-0-0-0----2-2-2-2----2-2-2-2----4-4-4-4-------- G----------------------------------|
C---x-x-x-x----2-2-2-2----x-x-x-x----4-4-4-4-------- C----------------------------------|

I know you're wondering when
(You're the only one who knows that)


       G          A          Bm         A
D---0-0-0-0----0-0-0-0----0-0-0-0----0-0-0-0------- D-----------4-----------4-------4-----------------|
A---0-0-0-0----0-0-0-0----0-0-0-0----0-0-0-0------- A-------5------------5--------5-------5/7-5-4-----|
F---2-2-2-2----4-4-4-4----6-6-6-6----4-4-4-4------- F--4-h6---6----4-h6--------6------6-----------6---|
C---2-2-2-2----4-4-4-4----6-6-6-6----4-4-4-4------- C-------------------------------------------------|
G---0-0-0-0----2-2-2-2----4-4-4-4----2-2-2-2------- G-------------------------------------------------|
C---x-x-x-x----x-x-x-x----x-x-x-x----x-x-x-x------- C-------------------------------------------------|

Someday, somehow
I'm gonna make it all right but not right now
I know you're wondering when...                  (De aquí en adelante se toca lo msimo)

Well I'd hope that since we're here anyway
That we could end up saying
Things we've always needed to say
So we could end up staying
Now the story's played out like this
Just like a paperback novel
Let's rewrite an ending that fits
Instead of a Hollywood horror

Nothing's wrong, just as long as
You know that someday I will

Someday, somehow
I'm gonna make it all right but not right now
I know you're wondering when
(You're the only one who knows that)
Someday, somehow
I'm gonna make it all right but not right now
I know you're wondering when
(You're the only one who knows that)

¡AHORA VIENE LA PARTE DEL SOLO!

los acordes en el solo son los mismos que en el coro. Y EL SOLO ES ESTE!

D--------------------------------------------------------------------------------------------------------------|
A--------------------------------------------------------------------------------------------------------------|
F-------8b--------------8b--------------------------------------------------------8-8-8--9-9--------8-8--8-9-8-|
C----11----9/11------------9/11------------9/11----11/13--11------------11-11-11-------------9-9--9------------|
G-/9------------------11----------------/7-------9-------------------------------------------------------------|
C-----------------/9-------------------------------------------------------------------------------------------|

D----------------------------------------------------------------------------------------------------------|
A----------------------------------------------------------------------------------------------------------|
F----------8-8-8--9-9-----11-11--8-8-9-8-----------8-8-8--9-9------13-13--9-9--11-9-----8-9---11-11/13-----|
C-11-11-11------------9-9-----------------11-11-11------------9-9--------------------11-----9-----------11-|
G----------------------------------------------------------------------------------------------------------|
C----------------------------------------------------------------------------------------------------------|

How the hell did we wind up like this?
Why weren't we able, to see the signs that we missed
And try to turn the tables
Now the story's played out like this
Just like a paperback novel
Let's rewrite an ending that fits
Instead of a Hollywood horror

Nothing's wrong, just as long as
You know that someday I will

Someday, somehow
I'm gonna make it all right but not right now
I know you're wondering when
(You're the only one who knows that)
Someday, somehow
I'm gonna make it all right but not right now
I know you're wondering when
(You're the only one who knows that)
I know you're wondering when
(You're the only one who knows that)


Otra vez se toca lo mismo y en el final es...


I know you're wondering when...

       G         A        E                     Ryan se queda tocando esto...
D---0-0-0-0----0-0-0-0----x----------------- D---------------4-----------4----------4--|
A---0-0-0-0----0-0-0-0----7----------------- A-----------5------------5---------5------|
F---2-2-2-2----4-4-4-4----6----------------- F------4-h6---6-----4-h6------4-h6---6----|
C---2-2-2-2----4-4-4-4----4----------------- C-----------------------------------------|
G---0-0-0-0----2-2-2-2----4----------------- G-----------------------------------------|
C---x-x-x-x----x-x-x-x----4----------------- C-----------------------------------------|

BUENO ESTO HA SIDO TODO AMIGOS, ESPERO SEA DE AYUDA PARA USTEDES. UN SALUDO!

            
            
Suggest correction
Creating personal tab
Creating personal tab
You can edit any tab online and save it as your Personal.

You can edit, replace or remove any tab part or add personal notes – all changes will be seen only by you.

Personal tabs can be accessed anytime from any device, even offline.
Learn more »
Give kudos to tab author, rate the tab!
1 2 3 4 5
comments
print report bad tab
1 comment total.
0 reply
Kuramadevil 31 Oct 27, 2015 08:30 PM

Buena tab!, me encanta como suena el intro! :D un saludo

guest
You may want to rate the tab now too:
select rating
Wanna post a correction for this tab? Suggest correction