Oops, an error
Loading. Please wait.

Someday Bass Tab

version 2
version 2

Whole song

Interactive

1,094 views 1 this week
no commentswrite comment
1 2 3 4 5
please rate
add to favorites
launch autoscroll
font size
0
reset
guitar tuner
Autoscroll
slow
fast
+/-
esc
set tempo
stop
Help us to improve Ultimate-Guitar.com Take our survey!
×
Contributor
Difficulty
novice
Artist: Nickelback
Song: Someday

Bass Tab
Transcribed by Selina Finsel (selinafinsel@gmail.com)

VERSE:
End of the word "tables"
G|--------------------------------------------------------------------------|
D|--------------------------------------------------------------------------|
A|--------------------------------------------------------------------------|
E|--------3--3--5--------3--3--5-----------------------------5--5--5--5--5--|
B|--12\0-----------3--0-----------3--5--5--5--5--5--5--5--5-----------------|

CHORUS:
G|--------------------------------------------------------------------------------------------|
D|--------------------------------------------------------------------------------------------|
A|--------------------------------------------------------------------------------------------|
E|--3--------5--------------3--3--5--5--------------5--5--5--5--3--------5--------------3--3--|
B|-----3--3-----5--5--5--5--------------0--0--0--0-----------------3--3-----5--5--5--5--------|

G|--------------------------------|
D|--------------------------------|
A|--------------------------------|
E|--5--5--5--5--5-----------------|
B|-----------------0--0--0--0--0--|

VERSE: No Bass

End of the word "straying"

G|--------------------------------------------------------------------------|
D|--------------------------------------------------------------------------|
A|--------------------------------------------------------------------------|
E|--------3--3--5--------3--3--5-----------------------------5--5--5--5--5--|
B|--12\0-----------3--0-----------3--5--5--5--5--5--5--5--5-----------------|

CHORUS:
G|--------------------------------------------------------------------------------------------|
D|--------------------------------------------------------------------------------------------|
A|--------------------------------------------------------------------------------------------|
E|--3--------5--------------3--3--5--5--------------5--5--5--5--3--------5--------------3--3--|
B|-----3--3-----5--5--5--5--------------0--0--0--0-----------------3--3-----5--5--5--5--------|

G|--------------------------------------------------------------------------------------------------|
D|--------------------------------------------------------------------------------------------------|
A|--------------------------------------------------------------------------------------------------|
E|--5--5--------------5--5--5--5--3--3--------5--5--------------3--3--5--5--------------------------|
B|--------0--0--0--0--------------------3--3--------5--5--5--5--------------0--0--0--0--5--5--5--5--|

G|-----------------------------------------------------|
D|-----------------------------------------------------|
A|-----------------------------------------------------|
E|--3--3--------5--5--------------3--3--5--5--5--5-----|
B|--------3--3--------5--5--5--5--------------------0--|

VERSE:
On the word "now" with no slide                                     CHORUS:
G|-----------------------------------------------------------------------------------------------|
D|-----------------------------------------------------------------------------------------------|
A|-----------------------------------------------------------------------------------------------|
E|-----3--3--5--------3--3--5-----------------------------5--5--5--5--5--3--------5--------------|
B|--0-----------3--0-----------3--5--5--5--5--5--5--5--5--------------------3--3-----5--5--5--5--|

G|--------------------------------------------------------------------------------------------------|
D|--------------------------------------------------------------------------------------------------|
A|--------------------------------------------------------------------------------------------------|
E|--3--3--5--5--------------5--5--5--5--3--------5--------------3--3--5--5--------------5--5--5--5--|
B|--------------0--0--0--0-----------------3--3-----5--5--5--5--------------0--0--0--0--------------|

G|-----------------------------------------------------------|
D|-----------------------------------------------------------|
A|-----------------------------------------------------------|
E|--3--3--3--5--5--5-----------5--5--5--3--3--3--5--5--5-----|
B|--------------------0--0--0-----------------------------5--|


| /  slide up
| \  slide down
| h  hammer-on
| p  pull-off
| ~  vibrato
| +  harmonic
| x  Mute note
===============================================================================
comments
We did not receive enough feedback on this tab! Please rate:
print report bad tab
1 2 3 4 5
I want to post or [tab]
guest
You may want to rate the tab now too:
select rating
Please do not post tabs as comments. Select "correction" instead!