Oops, an error
Loading. Please wait.

Someone That Youre With Bass Tab

version 1
version 1

Whole song

Interactive

2,393 views 1 this week
2 commentsread comments
1 2 3 4 5
worth learning
x 3
add to favorites
launch autoscroll
font size
0
reset
guitar tuner
Autoscroll
slow
fast
+/-
esc
set tempo
stop
Help us to improve Ultimate-Guitar.com Take our survey!
×
Author
Difficulty
novice
“Someone That You’re With” - Nickelback

Tabbed By : Bass Pants

Tuning: Drop D

Rest

Verse
G|--------------------------------------------------------|
D|--------------------------------------------------------|
A|--------------------------------------------------------|
E|-0-1-1--0-1-1--0-1-1--0-1-1--1-3-3--1-3-3--1-3-3--1-3-3-|

G|--------------------------------------------------------|
D|--------------------------------------------------------|
A|--------------------------------------------------------|
E|-3-1-1-—3-1-1--1-3-3--1-3-3--3-5-5--3-5-5--3-5-5--3-5-5-|

Pre Chorus
G|--------------------------------------------------------------------|
D|--------------------------------------------------------------------|
A|--------------------------------------------------------------------|
D|-8-8--8-8-8--8-8-8--8-8-8--5-5-5--5-5-5--5-5-5--5-5-5---------------|

G|--------------------------------------------------------------------|
D|--------------------------------------------------------------------|
A|--------------------------------------------------------------------|
D|-3-3-3--3-3-3--3-3-3--3-3-3--10-10-10--10-10-10---3-3-3-3-3-3-3-3-3-|

Chorus
G|------------------------------------------------------|
D|-------------------------------------------(tens)-----|
A|-00000000000000000--5555555555555555—1010101010101010-|
E|------------------------------------------------------|

G|--------------------------------------|
D|--------------------------------------|
A|-55555555-0000000000000000-------x2---|
E|--------------------------------------|

G|--------------------------------------------------------|
D|--------------------------------------------------------|
A|-33333333--55555555—3h5-----3h5-----3h5-----3h5---------|
E|------------------------0-0-----0-0-----0-0---------x2--|

G|-------------------------------------------------------------|
D|-------------------------------------------------------------|
A|-88888888-1010101010101010-33333333-55555555-88888888-10-10~-|
E|-------------------------------------------------------------|

G|---------------------------|
D|---------------------------|
A|---------------------------|
D|12-12--12-12-12--12-12-12--|

Rest
Verse
Pre Chorus
Chorus
Rest
Chorus 

That’s all
Suggest correction
Give kudos to tab author, rate the tab!
1 2 3 4 5
comments
print report bad tab
2 comments total.
0 reply
SmallCriminal 30 wrote on January 27 2009, 09:08 am

I just dont get your tab. Saying "Drop to D" but still tabbing in E... eh??? And the stuff you tab aint right... only some parts.

0 reply
Bass Pants 1,920 wrote on January 28 2009, 04:31 am

it in D, i just forgot to change the E to D sorry about that

guest
You may want to rate the tab now too:
select rating
Please do not post tabs as comments. Select "correction" instead!