Oops, an error
Loading. Please wait.

Someone That Youre With Bass Tab

version 3
version 3

Whole song

Interactive

546 views 1 this week
no commentswrite comment
1 2 3 4 5
please rate
add to favorites
launch autoscroll
font size
0
reset
guitar tuner
Autoscroll
slow
fast
+/-
esc
set tempo
stop
Help us to improve Ultimate-Guitar.com Take our survey!
×
Difficulty
intermediate
-------------------------------------------------------------------------------
		                SOMEONE THAT YOU'RE WITH - Nickelback
-------------------------------------------------------------------------------

Tabbed By : ForgottenGl0ry
e-mail: tnmosley@bellsouth.net

Tuning: Standard (EADG)

Tabber Note: I've looked at other tabs for this song, and they just sound wrong. So 
my correction to those.

Verse 1: (Bass comes in at 0:14)

G|-7-------------|---------------|--------------|--------------|
D|-------5h7-----|-------5h7-----|---5-5--3-5-5-|--------3-5---|
A|---5-5-----5-5-|-5-5-5-----5-5-|-5------------|--------------|
E|---------------|---------------|--------------|-3-3-3------3-|

G|--------------|--------------|----------------|----------------|
D|--------------|--------------|--------5h7-----|--------5h7-----|
A|--------------|--------------|---5-5------5-5-|-5-5-5------5-5-|
E|-3-1-1--1-1-1-|-1-3-3--3-3-3-|-3--------------|----------------|

G|--------------|-------------------|------------|------------------|
D|-0-8-8--8-8-8-|-8-8-8--0-8-0-8h10-|------------|------------------|
A|--------------|-------------------|------------|----------1-------|
E|--------------|-------------------|-3-3--3-3-3-|-3-3-3--3---3-x-x-|

G|------------|-----------|------------|-------------|
D|------------|-----------|------------|-------------|
A|------------|---1---1-2-|-3-3--3-3-3-|-3-----------|
E|-1-1--1-1-1-|-1---1-----|------------|----33333333-|


Pre-Chorus 1:

G||----------------|----------------|----------------|----------------|
D||----------------|----------------|-5-5-5-5~-5-5-5-|-5-5-5-5~-5-5-5-|
A||-5-5-5-5~-5-5-5-|-5-5-5-5~-5-5-5-|----------------|----------------|
E||----------------|----------------|----------------|----------------|

G|----------------|----------------|----------------|----------------||
D|----------------|-5-5-5-5~-5-5-5-|----------------|----------------||
A|-3-3-3-3~-3-3-3-|----------------|-5-5-5-5~-5-5-5-|-5-5-5-5~-5-5-5-||
E|----------------|----------------|----------------|----------------|| x2

G||----------|----------|-----------------|-----------------||
D||----------|----------|-----------------|-----------------||
A||----------|----------|-3h5-5-5-3h5-5-5-|-3h5-5-5-3h5-5-5-||
E||-11111111-|-33333333-|-----------------|-----------------|| x2


Chorus 1:

G|----------|----------|----------|----------|----------|----|
D|----------|----------|----------|----------|----------|----|
A|----------|----------|----------|----------|-11111111-|-3~-|
E|-66666666-|-88888888-|-11111111-|-33333333-|----------|----|

G|------------|--------------|
D|------------|--------------|
A|-5-5--5-5-5-|-5-5-5--5-5-5-|
E|------------|--------------|

Pre-Chorus 2:

G|----------------|----------------|----------------|----------------|
D|----------------|----------------|-5-5-5-5~-5-5-5-|-5-5-5-5~-5-5-5-|
A|-5-5-5-5~-5-5-5-|-5-5-5-5~-5-5-5-|----------------|----------------|
E|----------------|----------------|----------------|----------------|

G|----------------|----------------|----------------|----------------|
D|----------------|-5-5-5-5~-5-5-5-|----------------|----------------|
A|-3-3-3-3~-3-3-3-|----------------|-5-5-5-5~-5-5-5-|-5-5-5-5~-5-5-5-|
E|----------------|----------------|----------------|----------------|

G||----------|-------------|--------------|---------||
D||----------|-------------|--------------|---------||
A||----------|---------3h5-|-5-5--3h5-5-5-|-3h5-5-5-||
E||-11111111-|-3333333-----|--------------|---------|| x2


Chorus 2:

G|----------|----------|----------|----------|----------|----------|
D|----------|----------|----------|----------|----------|----------|
A|----------|----------|----------|----------|-11111111-|-33333333-|
E|-66666666-|-88888888-|-11111111-|-33333333-|----------|----------|

G|----------|----------|----------|----------|----|
D|----------|----------|----------|----------|----|
A|-11111111-|-33333333-|-11111111-|-33333333-|-5~-|
E|----------|----------|----------|----------|----|


Song Order:
Verse 1
Pre-Chorus 1
Chorus 1
Verse 1
Pre-Chorus 1
Chorus 1
Acoustic Break [No Bass]
Pre-Chorus 2
Chorus 2


| /  slide up
| \  slide down
| h  hammer-on
| p  pull-off
| ~  vibrato
| +  harmonic
| x  Mute note
=============================================================================
Suggest correction
What's this?
You can suggest a correction to this tab. Community and Mods will review your correction and vote to approve or reject it.
comments
We did not receive enough feedback on this tab! Please rate:
print report bad tab
1 2 3 4 5
guest
You may want to rate the tab now too:
select rating
Please do not post tabs as comments. Select "correction" instead!