Oops, an error
Loading. Please wait.

Someone That Youre With tab

version 3
version 3

Whole song

Interactive

618 views 1 this week
2 commentsread comments
1 2 3 4 5
1 last vote to show rating
add to favorites
×
Save as Personal and add changes to this tab that will be seen only by you. Learn more ›
×
You can save this tab as Personal to edit and correct it or add notes. All changes will be seen only by you. Learn more »
launch autoscroll
font size
0
reset
how to read this tab
guitar tuner
edit
Autoscroll
slow
fast
+/-
esc
set tempo
stop
Artist: Nickelback
Song: Someone That You’re With
Album: All The Right Reasons

Tuning: Drop – C (C G C F A D from Low to high)


Intro/Verse:          work rythem out (guitar 1&2 play the same rythem)


Guitar 1

D---------------------------------------------------------------------------|
A---------------------------------------------------------------------------|
F---------------------------------------------------------------------------|
C--2-2--2-2-2-2--2-2-2-2--2-2-2-2--2-2-7-7--7-7-7-7--7-7-7-7--7-7-7-7--7-7--|
G--2-2--2-2-2-2--2-2-2-2--2-2-2-2--2-2-7-7--7-7-7-7--7-7-7-7--7-7-7-7--7-7--|
C--2-2--2-2-2-2--2-2-2-2--2-2-2-2--2-2-7-7--7-7-7-7--7-7-7-7--7-7-7-7--7-7--|

D-------------------------------------------------------------------------------|
A-------------------------------------------------------------------------------|
F-------------------------------------------------------------------------------|
C--5-5--5-5-5-5--5-5-5-5--5-5-7-7--7-7-7-7--7-7-2-2--2-2-2-2--2-2-2-2--2-2-2-2--|
G--5-5--5-5-5-5--5-5-5-5--5-5-7-7—-7-7-7-7--7-7-2-2--2-2-2-2--2-2-2-2--2-2-2-2--|
C--5-5--5-5-5-5--5-5-5-5--5-5-7-7—-7-7-7-7--7-7-2-2--2-2-2-2--2-2-2-2--2-2-2-2--|

Guitar 2


D------------------------------------------------------|
A------------------------------------------------------|
F------------------------------------------------------|
C------------------------------------------------------|
G—5h7-7----5h7-7----5h7-7----5h7-7----5h7-7----5h7-7---|
C------------------------------------------------------|


Pre Chorus:

Guitar 1&2 light distortion

D-----------------------------------------------------------|
A-----------------------------------------------------------|
F---5-5--5-5-5--5-5-5--5-5-5--5-----------------------------|
C---5-5--5-5-5--5-5-5--5-5-5--5-7-7--7-7-7--7-7-7--7-7-7--7-|
G---3-3--3-3-3--3-3-3--3-3-3--3-7-7--7-7-7--7-7-7--7-7-7—-7-|
C-------------------------------7-7--7-7-7--7-7-7--7-7-7--7-|

D----------------------------------------------------------------------|
A----------------------------------------------------------------------|
F-------------------------------7-7--7-7-7--7-7-7--7-7-7--2-2-2-2-2----|
C---5-5--5-5-5--5-5-5--5-5-5--5-7-7--7-7-7--7-7-7--7-7-7--2-2-2-2-2----|
G---5-5--5-5-5--5-5-5--5-5-5--5-5-5--5-5-5--5-5-5--5-5-5--0-0-0-0-0----|
C---5-5--5-5-5--5-5-5--5-5-5--5----------------------------------------|

Chorus:

e---------------------------------------------------------------------------| 2x
B---------------------------------------------------------------------------|
G--------------------------------7-7-7-7-7-7-7------------------------------|
D----2-2-2-2-2-2-2-7-7-7-7-7-7-7-7-7-7-7-7-7-7-7-7-7-7-7-7-7-2-2-2-2-2-2----|
A----2-2-2-2-2-2-2-7-7-7-7-7-7-7-5-5-5-5-5-5-5-7-7-7-7-7-7-7-2-2-2-2-2-2----|
D----2-2-2-2-2-2-2-7-7-7-7-7-7-7---------------7-7-7-7-7-7-7-2-2-2-2-2-2----|


D---------------------------------------------------------------| 2x
A---------------------------------------------------------------|
F-------------------------7/9-9---7/9-9---7/9-9---7/9-9---------|
C----5-5-5-5-5-7-7-7-7-7—-7/9-9---7/9-9---7/9-9---7/9-9---------|
G----5-5-5-5-5-7-7-7-7-7—-5/7-7---5/7-7---5/7-7---5/7-7---------|
C----5-5-5-5-5-7-7-7-7-7----------------------------------------|

D--------------------------------------------------------------------|
A--------------------------------------------------------------------|
F---5-5-5-5-5-5-5-5--7-7-7-7-7-7-7-7---------------------------------|
C---5-5-5-5-5-5-5-5--7-7-7-7-7-7-7-7--5-5-5-5-5-5-5--7-7-7-7-7-7-7---|
G---3-3-3-3-3-3-3-3--5-5-5-5-5-5-5-5--5-5-5-5-5-5-5--7-7-7-7-7-7-7---|
C-------------------------------------5-5-5-5-5-5-5--7-7-7-7-7-7-7---|


D-------------------------------------------------------|
A-------------------------------------------------------|
F---5-5-5-5-5-5-5-5—-7~---7/9-9—-7/9-9—-7/9-9—-7/9-9----|
C---5-5-5-5-5-5-5-5—-7~---7/9-9—-7/9-9—-7/9-9—-7/9-9----|
G---3-3-3-3-3-3-3-3—-5~---5/7-7—-5/7-7—-5/7-7—-5/7-7----|
C-------------------------------------------------------|


Intro/Verse:          work rythem out (guitar 1&2 play the same rythem)


Guitar 1

D---------------------------------------------------------------------------|
A---------------------------------------------------------------------------|
F---------------------------------------------------------------------------|
C--2-2--2-2-2-2--2-2-2-2--2-2-2-2--2-2-7-7--7-7-7-7--7-7-7-7--7-7-7-7--7-7--|
G--2-2--2-2-2-2--2-2-2-2--2-2-2-2--2-2-7-7--7-7-7-7--7-7-7-7--7-7-7-7--7-7--|
C--2-2--2-2-2-2--2-2-2-2--2-2-2-2--2-2-7-7--7-7-7-7--7-7-7-7--7-7-7-7--7-7--|

D-------------------------------------------------------------------------------|
A-------------------------------------------------------------------------------|
F-------------------------------------------------------------------------------|
C--5-5--5-5-5-5--5-5-5-5--5-5-7-7--7-7-7-7--7-7-2-2--2-2-2-2--2-2-2-2--2-2-2-2--|
G--5-5--5-5-5-5--5-5-5-5--5-5-7-7—-7-7-7-7--7-7-2-2--2-2-2-2--2-2-2-2--2-2-2-2--|
C--5-5--5-5-5-5--5-5-5-5--5-5-7-7—-7-7-7-7--7-7-2-2--2-2-2-2--2-2-2-2--2-2-2-2--|


Guitar 2


D------------------------------------------------------|
A------------------------------------------------------|
F------------------------------------------------------|
C------------------------------------------------------|
G—5h7-7----5h7-7----5h7-7----5h7-7----5h7-7----5h7-7---|
C------------------------------------------------------|


Pre Chorus:

Guitar 1&2 light distortion

D-----------------------------------------------------------|
A-----------------------------------------------------------|
F---5-5--5-5-5--5-5-5--5-5-5--5-----------------------------|
C---5-5--5-5-5--5-5-5--5-5-5--5-7-7--7-7-7--7-7-7--7-7-7--7-|
G---3-3--3-3-3--3-3-3--3-3-3--3-7-7--7-7-7--7-7-7--7-7-7—-7-|
C-------------------------------7-7--7-7-7--7-7-7--7-7-7--7-|

D----------------------------------------------------------------------|
A----------------------------------------------------------------------|
F-------------------------------7-7--7-7-7--7-7-7--7-7-7---------------|
C---5-5--5-5-5--5-5-5--5-5-5--5-7-7--7-7-7--7-7-7--7-7-7--0-0-0-0-0----|
G---5-5--5-5-5--5-5-5--5-5-5--5-5-5--5-5-5--5-5-5--5-5-5--0-0-0-0-0----|
C---5-5--5-5-5--5-5-5--5-5-5--5---------------------------0-0-0-0-0----|

Chorus:

e---------------------------------------------------------------------------| 2x
B---------------------------------------------------------------------------|
G--------------------------------7-7-7-7-7-7-7------------------------------|
D----2-2-2-2-2-2-2-7-7-7-7-7-7-7-7-7-7-7-7-7-7-7-7-7-7-7-7-7-2-2-2-2-2-2----|
A----2-2-2-2-2-2-2-7-7-7-7-7-7-7-5-5-5-5-5-5-5-7-7-7-7-7-7-7-2-2-2-2-2-2----|
D----2-2-2-2-2-2-2-7-7-7-7-7-7-7---------------7-7-7-7-7-7-7-2-2-2-2-2-2----|


D---------------------------------------------------------------| 2x
A---------------------------------------------------------------|
F-------------------------7/9-9---7/9-9---7/9-9---7/9-9---------|
C----5-5-5-5-5-7-7-7-7-7—-7/9-9---7/9-9---7/9-9---7/9-9---------|
G----5-5-5-5-5-7-7-7-7-7—-5/7-7---5/7-7---5/7-7---5/7-7---------|
C----5-5-5-5-5-7-7-7-7-7----------------------------------------|

D--------------------------------------------------------------------|
A--------------------------------------------------------------------|
F---5-5-5-5-5-5-5-5--7-7-7-7-7-7-7-7---------------------------------|
C---5-5-5-5-5-5-5-5--7-7-7-7-7-7-7-7--5-5-5-5-5-5-5--7-7-7-7-7-7-7---|
G---3-3-3-3-3-3-3-3--5-5-5-5-5-5-5-5--5-5-5-5-5-5-5--7-7-7-7-7-7-7---|
C-------------------------------------5-5-5-5-5-5-5--7-7-7-7-7-7-7---|


D-------------------------------------------------------|
A-------------------------------------------------------|
F---5-5-5-5-5-5-5-5—-7~---7/9-9—-7/9-9—-7/9-9—-7/9-9----|
C---5-5-5-5-5-5-5-5—-7~---7/9-9—-7/9-9—-7/9-9—-7/9-9----|
G---3-3-3-3-3-3-3-3—-5~---5/7-7—-5/7-7—-5/7-7—-5/7-7----|
C-------------------------------------------------------|


Bridge:

(clean)


D----9~--2~--7~--9~-------|
A----8~--1~--6~--8~-------|
F----9~--2~--7~--9~-------|
C----9~--2~--7~--9~-------|
G----7~--0~--5~--7~-------|
C-------------------------|


Chorus/Outro:

e---------------------------------------------------------------------------| 2x
B---------------------------------------------------------------------------|
G--------------------------------7-7-7-7-7-7-7------------------------------|
D----2-2-2-2-2-2-2-7-7-7-7-7-7-7-7-7-7-7-7-7-7-7-7-7-7-7-7-7-2-2-2-2-2-2----|
A----2-2-2-2-2-2-2-7-7-7-7-7-7-7-5-5-5-5-5-5-5-7-7-7-7-7-7-7-2-2-2-2-2-2----|
D----2-2-2-2-2-2-2-7-7-7-7-7-7-7---------------7-7-7-7-7-7-7-2-2-2-2-2-2----|


D---------------------------------------------------------------| 2x
A---------------------------------------------------------------|
F-------------------------7/9-9---7/9-9---7/9-9---7/9-9---------|
C----5-5-5-5-5-7-7-7-7-7—-7/9-9---7/9-9---7/9-9---7/9-9---------|
G----5-5-5-5-5-7-7-7-7-7—-5/7-7---5/7-7---5/7-7---5/7-7---------|
C----5-5-5-5-5-7-7-7-7-7----------------------------------------|

D--------------------------------------------------------------------| 2x
A--------------------------------------------------------------------|
F---5-5-5-5-5-5-5-5--7-7-7-7-7-7-7-7---------------------------------|
C---5-5-5-5-5-5-5-5--7-7-7-7-7-7-7-7--5-5-5-5-5-5-5--7-7-7-7-7-7-7---|
G---3-3-3-3-3-3-3-3--5-5-5-5-5-5-5-5--5-5-5-5-5-5-5--7-7-7-7-7-7-7---|
C-------------------------------------5-5-5-5-5-5-5--7-7-7-7-7-7-7---|


D-----------------------------------------|
A-----------------------------------------|
F---5-5-5-5-5-5-5-5—-7-7-7-7-7-7-7—-9~----|
C---5-5-5-5-5-5-5-5—-7-7-7-7-7-7-7—-9~----|
G---3-3-3-3-3-3-3-3—-5-5-5-5-5-5-5—-7~----|
C-----------------------------------------|
Suggest correction
Creating personal tab
Creating personal tab
You can edit any tab online and save it as your Personal.

You can edit, replace or remove any tab part or add personal notes – all changes will be seen only by you.

Personal tabs can be accessed anytime from any device, even offline.
Learn more »
Give kudos to tab author, rate the tab!
1 2 3 4 5
comments
print report bad tab
2 comments total.
0 reply
frettshrredder 10 Jan 11, 2007 07:22 AM

you can put it in drop c but you don't have to

0 reply
Schiz31 10 Apr 05, 2007 09:23 PM

Theres definately no reason for this to be tuned that low. Why not play in drop D?

guest
You may want to rate the tab now too:
select rating
Wanna post a correction for this tab? Suggest correction