Oops, an error
Loading. Please wait.

Someone That Youre With tab

version 4
version 4

Whole song

Interactive

2,486 views 1 this week
no commentswrite comment
1 2 3 4 5
3 more votes to show rating
add to favorites
×
Save as Personal and add changes to this tab that will be seen only by you. Learn more ›
×
You can save this tab as Personal to edit and correct it or add notes. All changes will be seen only by you. Learn more »
launch autoscroll
font size
0
reset
how to read this tab
guitar tuner
edit
Autoscroll
slow
fast
+/-
esc
set tempo
stop
Nickelback - Someone That You're With
Tabbed By:Gabe Hawkins - gabe_hawkins93@yahoo.com
Tuning:Drop D (DADGBe)
Album: For All the Right Reasons
Guitarist(s): Chad Kroger;Ryan Peake

I've noticed there aren't any 100% accurate tabs. There's one that's really close, but 
is 100% correct. If you have any questions/comments or corrections, please feel free to 
me at gabe_hawkins93@yahoo.com Any feedback is appreciated.

                            Key:
                         h  - Hammer On
                         *  - Hold Note/Chord Momentarily
                         ~  - Let Note/Chord Ring
                         \  - Slide Towards Headstock
                         /  - Slide Towards Body

Intro/Verse 1:
e|---------|---|
B|---------|-o-|
G|---------|---|
D|---------|---|
A|-3h5-----|-o-|
D|-----0-0-|---|x4

e|---------|---|
B|---------|-o-|
G|---------|---|
D|---------|---|
A|-3h5-----|-o-|
D|-----5-5-|---|x4

e|---------|---|
B|---------|-o-|
G|---------|---|
D|---------|---|
A|-3h5-----|-o-|
D|-----3-3-|---|x2

e|---------|---|
B|---------|-o-|
G|---------|---|
D|---------|---|
A|-3h5-----|-o-|
D|-----5-5-|---|x2

e|---------|---|
B|---------|-o-|
G|---------|---|
D|---------|---|
A|-3h5-----|-o-|
D|-----0-0-|---|x4

e|---------|---|
B|---------|-o-|
G|---------|---|
D|---------|---|
A|-3h5-----|-o-|
D|-----0-0-|---|x4

e|---------|---|
B|---------|-o-|
G|---------|---|
D|---------|---|
A|-3h5-----|-o-|
D|-----5-5-|---|x4

e|---------|---|
B|---------|-o-|
G|---------|---|
D|---------|---|
A|-3h5-----|-o-|
D|-----3-3-|---|x2

e|---------|---|
B|---------|-o-|
G|---------|---|
D|---------|---|
A|-3h5-----|-o-|
D|-----5-5-|---|x2

e|---------|---|
B|---------|-o-|
G|---------|---|
D|---------|---|
A|-3h5-----|-o-|
D|-----0-0-|---|x4

Pre-Chorus:
e|----------------------------------------------------------------------|
B|----------------------------------------------------------------------|
G|----------------------------------------------------------------------|
D|-33-333-333-333-3-----------------------------------55-555-5----------|
A|-11-111-111-111-1-55-555-555-555-5-33-333-333-333-3-33-333-3-55-555-5-|
D|------------------55-555-555-555-5-33-333-333-333-3----------55-555-5-|

Chorus:
e|----------------------------------------------------------------|---|
B|----------------------------------------------------------------|-o-|
G|----------------------------------------------------------------|---|
D|----------------------------------555555------------------------|---|
A|-000000000000000-5555555555555555-333333-5555555-00000000000000-|-o-|
D|-000000000000000-5555555555555555--------5555555-00000000000000-|---|x2

e|---------------------------------------------------|---|
B|---------------------------------------------------|-o-|
G|---------------------------------------------------|---|
D|---------------------------------------------------|---|
A|-33333333-55555555-3h5-----3h5-----3h5-----3h5-----|-o-|
D|-33333333-55555555-----0-0-----0-0-----0-0-----0-0-|---|x2

e|----------------------------------------------------------------|
B|----------------------------------------------------------------|
G|----------------------------------------------------------------|
D|-3333333-5555555-------------------3333333-5*--77-777-777-777-7-|
A|-1111111-3333333-33333333-55555555-1111111-3*--55-555-555-555-5-|
D|-----------------33333333-55555555------------------------------|

Verse 2:
e|---------|---|
B|---------|-o-|
G|---------|---|
D|---------|---|
A|-3h5-----|-o-|
D|-----0-0-|---|x4

e|---------|---|
B|---------|-o-|
G|---------|---|
D|---------|---|
A|-3h5-----|-o-|
D|-----5-5-|---|x4

e|---------|---|
B|---------|-o-|
G|---------|---|
D|---------|---|
A|-3h5-----|-o-|
D|-----3-3-|---|x2

e|---------|---|
B|---------|-o-|
G|---------|---|
D|---------|---|
A|-3h5-----|-o-|
D|-----5-5-|---|x2

e|---------|---|
B|---------|-o-|
G|---------|---|
D|---------|---|
A|-3h5-----|-o-|
D|-----0-0-|---|x4

e|---------|---|
B|---------|-o-|
G|---------|---|
D|---------|---|
A|-3h5-----|-o-|
D|-----0-0-|---|x4

e|---------|---|
B|---------|-o-|
G|---------|---|
D|---------|---|
A|-3h5-----|-o-|
D|-----5-5-|---|x4

e|---------|---|
B|---------|-o-|
G|---------|---|
D|---------|---|
A|-3h5-----|-o-|
D|-----3-3-|---|x2

e|---------|---|
B|---------|-o-|
G|---------|---|
D|---------|---|
A|-3h5-----|-o-|
D|-----5-5-|---|x2

e|---------|---|
B|---------|-o-|
G|---------|---|
D|---------|---|
A|-3h5-----|-o-|
D|-----0-0-|---|x4

Pre-Chorus:
e|----------------------------------------------------------------------|
B|----------------------------------------------------------------------|
G|----------------------------------------------------------------------|
D|-33-333-333-333-3-----------------------------------55-555-5----------|
A|-11-111-111-111-1-55-555-555-555-5-33-333-333-333-3-33-333-3-55-555-5-|
D|------------------55-555-555-555-5-33-333-333-333-3----------55-555-5-|

Chorus:
e|----------------------------------------------------------------|---|
B|----------------------------------------------------------------|-o-|
G|----------------------------------------------------------------|---|
D|----------------------------------555555------------------------|---|
A|-000000000000000-5555555555555555-333333-5555555-00000000000000-|-o-|
D|-000000000000000-5555555555555555--------5555555-00000000000000-|---|x2

e|---------------------------------------------------|---|
B|---------------------------------------------------|-o-|
G|---------------------------------------------------|---|
D|---------------------------------------------------|---|
A|-33333333-55555555-3h5-----3h5-----3h5-----3h5-----|-o-|
D|-33333333-55555555-----0-0-----0-0-----0-0-----0-0-|---|x2

e|----------------------------------------------------------------|
B|----------------------------------------------------------------|
G|----------------------------------------------------------------|
D|-3333333-5555555-------------------3333333-5*--77-777-777-777-7-|
A|-1111111-3333333-33333333-55555555-1111111-3*--55-555-555-555-5-|
D|-----------------33333333-55555555------------------------------|

Interlude:(Acoustic)
e|---------------------|
B|---------------------|
G|-7~------5~------7~--|
D|-7~------5~------7~--|
A|-5~--5~--3~--5~--5~--|
D|-----5~------5~------|

Chorus: (DIFFERENT, DON'T PASS UP)
e|----------------------------------------------------------------|
B|----------------------------------------------------------------|
G|----------------------------------------------------------------|
D|----------------------------------555555------------------------|
A|-000000000000000-5555555555555555-333333-5555555-00000000000000-|
D|-000000000000000-5555555555555555--------5555555-00000000000000-|

e|---------------------------------------------------|---|
B|---------------------------------------------------|-o-|
G|---------------------------------------------------|---|
D|---------------------------------------------------|---|
A|-33333333-55555555-3h5-----3h5-----3h5-----3h5-----|-o-|
D|-33333333-55555555-----0-0-----0-0-----0-0-----0-0-|---|x2

e|------------------------------------------------------------------|
B|------------------------------------------------------------------|
G|------------------------------------------------------------------|
D|-3333333-5555555-------------------3333333-555555-----------------|
A|-1111111-3333333-33333333-55555555-1111111-333333-33333333-555555-|
D|-----------------33333333-55555555----------------33333333-555555-|

e|------------------|
B|------------------|
G|------------------|
D|-3333333-5*-7~~~\-|
A|-1111111-3*-5~~~\-|
D|------------------|
The slides here are optional, you can do them to get that last little sound at the end 
the song.

And that's it. Enjoy!

Contact:
Email - gabe_hawkins93@yahoo.com
MSN - Gabe@ntelos.net
ICQ - 243314344

            
            
Suggest correction
Creating personal tab
Creating personal tab
You can edit any tab online and save it as your Personal.

You can edit, replace or remove any tab part or add personal notes – all changes will be seen only by you.

Personal tabs can be accessed anytime from any device, even offline.
Learn more »
Give kudos to tab author, rate the tab!
1 2 3 4 5
comments
print report bad tab
guest
You may want to rate the tab now too:
select rating
Wanna post a correction for this tab? Suggest correction