Oops, an error
Loading. Please wait.
We have Chord Pro version of Song On Fire.
It's the closest thing you can get to the original song and it has interactive parts. Check out the tab »
×

Song On Fire tab

version 1
version 1

Whole song

  • Rhythm and lead guitar of the song. Both on Drop D.

Interactive

103 views 3 this week
1 commentread comment
1 2 3 4 5
1 last vote to show rating
add to favorites
×
Save as Personal and add changes to this tab that will be seen only by you. Learn more ›
×
You can save this tab as Personal to edit and correct it or add notes. All changes will be seen only by you. Learn more »
launch autoscroll
font size
0
reset
how to read this tab
guitar tuner
edit
Autoscroll
slow
fast
+/-
esc
set tempo
stop
About this tab version
Rhythm and lead guitar of the song. Both on Drop D. Was this info helpful? Yes No
[Intro]
(Clean)
E|----------------------------------------------------|----------------|
B|--------------14-------------------------------10---|--12----14------|
G|--11----------------------14----------------11------|-----11----14L--|
D|----------------------------------------------------|----------------|
A|----------------------------------------------------|----------------|
D|----------------------------------------------------|----------------|

E|----------------------------------------------------|
B|-----------10-12----------------------14------------|
G|--14----11----------------11------------------------|
D|----------------------------------------------------|
A|----------------------------------------------------|
D|----------------------------------------------------|

E|----------------------------------------------------|
B|-----------------------10-12------------------------|
G|--14----------------11----------------11------------|
D|----------------------------------------------------|
A|----------------------------------------------------|
D|----------------------------------------------------|

E|----------------------------------------------------|
B|--15----------14----------------10-10-12------------|
G|----------------------------------------------------|
D|----------------------------------------------------|
A|----------------------------------------------------|
D|----------------------------------------------------|

[Verse 1]
(Clean)
E|----------------|
B|-----12-14------|
G|--11------------|
D|----------------|
A|----------------|
D|----------------|

E|----------------|----------------|----------------|----------------|
B|-----12-14------|-----12-14------|-----12-14------|-----12-14------|
G|--11------------|--11------------|--11------------|--11------------|
D|----------------|----------------|----------------|----------------|
A|----------------|----------------|----------------|----------------|
D|----------------|----------------|----------------|----------------|

E|----------------|----------------|----------------|
B|-----12-14------|-----12-14------|-----12-14------|
G|--11------------|--11------------|--11------------|
D|----------------|----------------|----------------|
A|----------------|----------------|----------------|
D|----------------|----------------|----------------|

[Pre-Chorus 1]
(Clean)
E|----------------------------------------------------|
B|----------------------------------------------------|
G|----------------------------------------------------|
D|--------4-----------------------7-------------------|
A|-----4-----------------------7----------------------|
D|--4-----------------------7-------------------------|

E|----------------------------------------------------|
B|----------------------------------------------------|
G|----------------------------------------------------|
D|--------9-----------------------12------------------|
A|-----9-----------------------12---------------------|
D|--9-----------------------12------------------------|

[Chorus]
(Overdrive)
E|----------------------------|----------------------------|
B|----------------------------|----------------------------|
G|----------------------------|----------------------------|
D|----------------------------|----------------------------|
A|--7--7--7--7--7--7--7--7----|--2--2--2--2--2--2--2--2----|
D|--7--7--7--7--7--7--7--7----|--2--2--2--2--2--2--2--2----|

E|----------------------------|----------------------------|
B|----------------------------|----------------------------|
G|----------------------------|----------------------------|
D|----------------------------|--7--7--7--7--7--7--7--7----|
A|--4--4--4--4--4--4--4--4----|--5--5--5--5--5--5--5--5----|
D|--4--4--4--4--4--4--4--4----|----------------------------|

E|----------------------------|----------------------------|
B|----------------------------|----------------------------|
G|----------------------------|----------------------------|
D|----------------------------|----------------------------|
A|--7--7--7--7--7--7--7--7----|--2--2--2--2--2--2--2--2----|
D|--7--7--7--7--7--7--7--7----|--2--2--2--2--2--2--2--2----|

E|----------------------------|----------------------------|
B|----------------------------|----------------------------|
G|----------------------------|----------------------------|
D|----------------------------|--7--7--7--7--7--7--7--7----|
A|--4--4--4--4--4--4--4--4----|--5--5--5--5--5--5--5--5----|
D|--4--4--4--4--4--4--4--4----|----------------------------|

[Verse 2]
(Clean)
E|----------------------------------------------------|----------------|
B|--------------14-------------------------------10---|--12----14------|
G|--11----------------------14----------------11------|-----11----14L--|
D|----------------------------------------------------|----------------|
A|----------------------------------------------------|----------------|
D|----------------------------------------------------|----------------|

E|----------------------------------------------------|
B|-----------10-12----------------------14------------|
G|--14----11----------------11------------------------|
D|----------------------------------------------------|
A|----------------------------------------------------|
D|----------------------------------------------------|

E|----------------------------------------------------|
B|-----------------------10-12------------------------|
G|--14----------------11----------------11------------|
D|----------------------------------------------------|
A|----------------------------------------------------|
D|----------------------------------------------------|

E|----------------------------------------------------|----------------|
B|--15----------14----------------10-10-12------------|-----12-14------|
G|----------------------------------------------------|--11------------|
D|----------------------------------------------------|----------------|
A|----------------------------------------------------|----------------|
D|----------------------------------------------------|----------------|

E|----------------|----------------|----------------|----------------|
B|-----12-14------|-----12-14------|-----12-14------|-----12-14------|
G|--11------------|--11------------|--11------------|--11------------|
D|----------------|----------------|----------------|----------------|
A|----------------|----------------|----------------|----------------|
D|----------------|----------------|----------------|----------------|

[Pre-chorus 2]
(Clean)
E|----------------------------------------------------|
B|----------------------------------------------------|
G|----------------------------------------------------|
D|--------4-----------------------7-------------------|
A|-----4-----------------------7----------------------|
D|--4-----------------------7-------------------------|

E|----------------------------------------------------|
B|----------------------------------------------------|
G|----------------------------------------------------|
D|--------9-----------------------12------------------|
A|-----9-----------------------12---------------------|
D|--9-----------------------12------------------------|

[Chorus]
(Overdrive)
E|----------------------------|
B|----------------------------|
G|----------------------------|
D|----------------------------|
A|--7--7--7--7--7--7--7--7----|
D|--7--7--7--7--7--7--7--7----|

E|----------------------------|----------------------------|
B|----------------------------|----------------------------|
G|----------------------------|----------------------------|
D|----------------------------|----------------------------|
A|--2--2--2--2--2--2--2--2----|--4--4--4--4--4--4--4--4----|
D|--2--2--2--2--2--2--2--2----|--4--4--4--4--4--4--4--4----|

E|----------------------------|----------------------------|
B|----------------------------|----------------------------|
G|----------------------------|----------------------------|
D|--7--7--7--7--7--7--7--7----|----------------------------|
A|--5--5--5--5--5--5--5--5----|--7--7--7--7--7--7--7--7----|
D|----------------------------|--7--7--7--7--7--7--7--7----|

E|----------------------------|----------------------------|
B|----------------------------|----------------------------|
G|----------------------------|----------------------------|
D|----------------------------|----------------------------|
A|--2--2--2--2--2--2--2--2----|--4--4--4--4--4--4--4--4----|
D|--2--2--2--2--2--2--2--2----|--4--4--4--4--4--4--4--4----|

E|----------------------------|----------------------------|
B|----------------------------|----------------------------|
G|----------------------------|----------------------------|
D|--7--7--7--7--7--7--7--7----|----------------------------|
A|--5--5--5--5--5--5--5--5----|--7--7--7--7--7--7--7--7----|
D|----------------------------|--7--7--7--7--7--7--7--7----|

E|----------------------------|----------------------------|
B|----------------------------|----------------------------|
G|----------------------------|----------------------------|
D|----------------------------|----------------------------|
A|--2--2--2--2--2--2--2--2----|--4--4--4--4--4--4--4--4----|
D|--2--2--2--2--2--2--2--2----|--4--4--4--4--4--4--4--4----|

E|----------------------------|----------------------------|
B|----------------------------|----------------------------|
G|----------------------------|----------------------------|
D|--7--7--7--7--7--7--7--7----|----------------------------|
A|--5--5--5--5--5--5--5--5----|----------------------------|
D|----------------------------|----------------------------|

[Bridge]
(Clean)
E|----------------------------|
B|----------------------------|
G|----------------------------|
D|----------------------------|
A|--7--7--7--7--7--7--7--7----|
D|--7--7--7--7--7--7--7--7----|

E|----------------------------|----------------------------|
B|----------------------------|----------------------------|
G|----------------------------|----------------------------|
D|----------------------------|----------------------------|
A|--2--2--2--2--2--2--2--2----|--4--4--4--4--4--4--4--4----|
D|--2--2--2--2--2--2--2--2----|--4--4--4--4--4--4--4--4----|

E|----------------------------|----------------------------|
B|----------------------------|----------------------------|
G|----------------------------|----------------------------|
D|--7--7--7--7--7--7--7--7----|----------------------------|
A|--5--5--5--5--5--5--5--5----|--7--7--7--7--7--7--7--7----|
D|----------------------------|--7--7--7--7--7--7--7--7----|

E|----------------------------|----------------------------|
B|----------------------------|----------------------------|
G|----------------------------|----------------------------|
D|----------------------------|----------------------------|
A|--2--2--2--2--2--2--2--2----|--4--4--4--4--4--4--4--4----|
D|--2--2--2--2--2--2--2--2----|--4--4--4--4--4--4--4--4----|

E|----------------------------|----------------------------|
B|----------------------------|----------------------------|
G|----------------------------|----------------------------|
D|--7--7--7--7--7--7--7--7----|----------------------------|
A|--5--5--5--5--5--5--5--5----|----------------------------|
D|----------------------------|----------------------------|

[Chorus]
(Overdrive)
E|----------------------------|
B|----------------------------|
G|----------------------------|
D|----------------------------|
A|--7--7--7--7--7--7--7--7----|
D|--7--7--7--7--7--7--7--7----|

E|----------------------------|----------------------------|
B|----------------------------|----------------------------|
G|----------------------------|----------------------------|
D|----------------------------|----------------------------|
A|--2--2--2--2--2--2--2--2----|--4--4--4--4--4--4--4--4----|
D|--2--2--2--2--2--2--2--2----|--4--4--4--4--4--4--4--4----|

E|----------------------------|----------------------------|
B|----------------------------|----------------------------|
G|----------------------------|----------------------------|
D|--7--7--7--7--7--7--7--7----|----------------------------|
A|--5--5--5--5--5--5--5--5----|--7--7--7--7--7--7--7--7----|
D|----------------------------|--7--7--7--7--7--7--7--7----|

E|----------------------------|----------------------------|
B|----------------------------|----------------------------|
G|----------------------------|----------------------------|
D|----------------------------|----------------------------|
A|--2--2--2--2--2--2--2--2----|--4--4--4--4--4--4--4--4----|
D|--2--2--2--2--2--2--2--2----|--4--4--4--4--4--4--4--4----|

E|----------------------------|-------|-------|
B|----------------------------|-------|-------|
G|----------------------------|--7----|-------|
D|--7--7--7--7--7--7--7--7----|--7----|-------|
A|--5--5--5--5--5--5--5--5----|--5----|-------|
D|----------------------------|-------|-------|

            
            
Suggest correction
Creating personal tab
Creating personal tab
You can edit any tab online and save it as your Personal.

You can edit, replace or remove any tab part or add personal notes – all changes will be seen only by you.

Personal tabs can be accessed anytime from any device, even offline.
Learn more »
Give kudos to tab author, rate the tab!
1 2 3 4 5
comments
print report bad tab
1 comment total.
0 reply
Daughtryfan497 1,278 11 hours ago

This tab is awesome.

guest
You may want to rate the tab now too:
select rating
Wanna post a correction for this tab? Suggest correction