Oops, an error
Loading. Please wait.

This Afternoon Bass Tab

version 1
version 1

Whole song

Interactive

10,775 views 1 this week
6 commentsread comments
1 2 3 4 5
x 4
add to favorites
launch autoscroll
font size
0
reset
guitar tuner
Autoscroll
slow
fast
+/-
esc
set tempo
stop
Help us to improve Ultimate-Guitar.com Take our survey!
×
Author
Difficulty
novice
Song: This Afternoon 
Artist: Nickelback
Album: Dark Horse
Tabbed By: Linsenman101

This is my first tab so please rate/comment.

No Bass on intro

(0:15)
G|-----------------------------------|
D|-----------------------------------|
A|-----------3-3-3-3-5-5-5-5-3/7-7-7-|
E|--3-3-3-3--------------------------| x6  (Riff 1)



G|---------------------------------|
D|-------------22------------------|
A|-33--55----------33------55555555|
E|---------33----------33----------|       (Riff 2) 



G|--------------------------------------|
D|-2222----------------2222-------------|
A|------5555------3333------5555--------|
E|-----------3333----------------3333/1~|  (Riff 3) 


Riff 1 x5
Riff 2
Riff 3 x2
Riff 1 
Riff 3 x2
Riff 2
Riff 1
Riff 2
Riff 3 x2
Repeat Riff 1 until end. The riffs ocasionally change but i play it like this and 
theres no trouble.
Suggest correction
comments
print report bad tab
6 comments total. Showing first comments.
0 reply
Flynx 10 Jun 18, 2010 01:22 AM

Something seems wrong with Riff 1... I play it and it sounds terrible. I fiddle around with it and see what I can change.

+1 reply
Flynx 10 Jun 18, 2010 01:34 AM

FOUND IT almost right away too!

At this part:
(0:15)
G|-----------------------------------|
D|-----------------------------------|
A|-----------3-3-3-3-5-5-5-5-3/7-7-7-|
E|--3-3-3-3--------------------------| x6 (Riff 1)

change it too:
(0:15)
G|--------|--------|--------|--------|--------|--------|--------|--------|
D|--------|--------|--------|--------|--------|--------|--------|--------|
A|--------|--------|3-3-3-3-|5-5-5-5-|--------|5-5-5-5-|3-3-3-3-|3/7-7-7-|
E|3-3-3-3-|2-2-2-2-|--------|--------|3-3-3-3-|--------|--------|--------| (Riff 1)
|1+2+3+4+|1+2+3+4+|1+2+3+4+|1+2+3+4+|1+2+3+4+|1+2+3+4+|1+2+3+4+|1+2+3+4+

0 reply
holgedansk 72 Jul 25, 2010 11:53 AM

theres lots more wrong with it as well. ill try to do the same as you, Flynx

guest
You may want to rate the tab now too:
select rating
Wanna post a correction for this tab? Suggest correction