Oops, an error
Loading. Please wait.

This Afternoon Bass Tab

version 2
version 2

Whole song

Interactive

6,600 views 6 this week
1 commentread comment
1 2 3 4 5
excellent!
x 4
add to favorites
launch autoscroll
font size
0
reset
guitar tuner
Tab Pro tools
  • play this tab
  • loop segment
  • change instrument
  • show fretboard
  • metronome
×
Best way to learn
"This Afternoon"
Autoscroll
slow
fast
+/-
esc
set tempo
stop
Contributor
Difficulty
novice
The only one i've seen so far has been awful, so i hope this is better

Verse
G|---------------------------------|---------------------------------|
D|---------------------------------|---------------------------------|
A|-----------------3-3-3-3-3-3-5-5-|---------5-5-5-5-3-3-3-3-3-3/7-7-| x2
E|-3-3-3-3-2-2-2-2-----------------|-3-3-3-3-------------------------|

G|---------------------------------|---------------------------------|
D|---------------------------------|---------------------------------|
A|-----------------3-3-3-3-3-3-5-5-|---------5-5-5-5-3-3-3-3-7~--5~--| 
E|-3-3-3-3-2-2-2-2-----------------|-3-3-3-3-------------------------|

Pre Chorus
G|----------------------------------------------|
D|----------------2-2---------------------------|
A|-3-3--5-5------------3-3-------5-5-5-5-5-5-5-5|
E|-----------3-3------------3-3-----------------|

Chorus
G|----------------------------------------------------------------|
D|-2-2-2-2--------------------------2-2-2-2-----------------------|
A|----------5-5-5-5---------3-3-3-3---------5-5-5-5---------------|
E|------------------3-3-3-3-------------------------15-15-15-15/8~|

Post Chorus
G|-------------------------------------|
D|-------------------------------------|
A|---------------------3-3-3-3-3-3-5-5-|
E|-15\-3-3-3-3-2-2-2-2-----------------|

Verse 2
G|---------------------------------|---------------------------------|
D|---------------------------------|---------------------------------|
A|-----------------3-3-3-3-3-5-5-5-|---------5-5-5-5-3-3-3-3-3-3/7-7-| 
E|-3-3-3-3-2-2-2-2-----------------|-3-3-3-3-------------------------|

G|---------------------------------|---------------------------------|
D|---------------------------------|---------------------------------|
A|-----------------3-3-3-3-3-3-5-5-|---------5-5-5-5-3-3-3-3-7~--5~--| 
E|-3-3-3-3-2-2-2-2-----------------|-3-3-3-3-------------------------|

Pre Chorus

Chorus 2
G|------------------------------------------------------------------|
D|-2-2-2-2-------------------------2-2-2-2--------------------------|
A|---------5-5-5-5---------3-3-3-3---------5-5-5-5---------3-3-3-3--|
E|-----------------3-3-3-3-------------------------3-3-3-3----------|

G|-----------------------------------------------------------|
D|-2-2-2-2-------------------------2-2-2-2-------------------|
A|---------5-5-5-5---------3-3-3-3---------5-5-5-5-----------|
E|-----------------3-3-3-3-------------------------15-15\7/8~|

Post Chorus 2
G|---------------------------------|
D|---------------------------9-7-5-|
A|-----------------3-3-3-3-3-------|
E|-3-3-3-3-2-2-2-2-----------------|

Breakdown
G|---------------------------------|
D|---------------------------------|
A|-3-3-3-3-5-5-5-5-----2~--3-3-3-3-| x3
E|-----------------3~--------------|

G|---------------------------------|
D|---------------------------------|
A|-3-3-----5-5---------2~--3-3-3-3-| 
E|-----------------3~--------------|

Break

Pre Chorus
G|----------------------------------------------|
D|----------------2-2---------------------------|
A|-3-3--5-5------------3-3-------5-5-5-5---5-5-5|
E|-----------3-3------------3-3----------3------|

Chorus 2
G|------------------------------------------------------------------|
D|-2-2-2-2-------------------------2-2-2-2--------------------------|
A|---------5-5-5-5---------3-3-3-3---------5-5-5-5---------3-3-3-3--|
E|-----------------3-3-3-3-------------------------3-3-3-3----------|

G|---------------------------------------------------------------|
D|-2-2-2-2-------------------------2-2-2-2-----------------------|
A|---------5-5-5-5---------3-3-3-3---------5-5-5-5-----2--3~-/15~|
E|-----------------3-3-3-3-------------------------3-3-----------|

Post Chorus 3
G|--------------------------------------|
D|--------------------------------------|
A|-15\~-----------------3-3-3-3-3-3-5-5-|
E|------3-3-3-3-2-2-2-2-----------------|

G|---------------------------------|---------------------------------|
D|---------------------------------|---------------------------------|
A|-----------------3-3-3-3-3-3-5-5-|---------5-5-5-5-3-3-3-3-3-3/7-7-| 
E|-3-3-3-3-2-2-2-2-----------------|-3-3-3-3-------------------------|

Repeat last line until the end, with a couple of little fills occasionally which you can work out.
Great song, please leave any comments or corrections
comments
print report bad tab
1 comment total.
0 reply
jonwilliam wrote on February 4 2014, 05:27 am

orsm 100% 5 stars

I want to post or [tab]
guest
You may want to rate the tab now too:
select rating
Please do not post tabs as comments. Select "correction" instead!