Oops, an error
Loading. Please wait.

Throw Yourself Away tab

version 4
version 4

Whole song

Interactive

2,637 views 9 this week
no commentswrite comment
1 2 3 4 5
1 last vote to show rating
add to favorites
×
Save as Personal and add changes to this tab that will be seen only by you. Learn more ›
×
You can save this tab as Personal to edit and correct it or add notes. All changes will be seen only by you. Learn more »
launch autoscroll
font size
0
reset
how to read this tab
guitar tuner
edit
Autoscroll
slow
fast
+/-
esc
set tempo
stop
Throw Yourself Away
Nickelback
The Long Road (2003)

Throw Yourself Away:  written by Chad Kroeger and Nickelback

NOTE:  If you want to play it with 2 guitars, mesh guitars 3 and 4 and
let guitar 2 play it.  Guitar 5 can also be replaced with a bass.

GTR I - Drop C Tuning "Chad Kroeger" (d,A,F,C,G,C)
GTR II - Drop C Tuning "Ryan Peake" (d,A,F,C,G,C)
GTR III - Drop C Tuning "Solo Guitar" (d,A,F,C,G,C)
GTR IV - Drop C Tuning "Solo Guitar 2" (d,A,F,C,G,C)
GTR V - Drop C Tuning "Clean w. Flanger" (d,A,F,C,G,C)

Intro

  GTR I
d|--x----------------------------------------------|
A|--3----------------------------------------------|
F|--2----------------------------------------------|
C|--0----------------------------------------------|
G|--0-----------x--------0--0--0-----------------0-|
C|--0-----------x--------0--0--0-----------------0-|
 |                       .  .  .                 .
 |GTR II
d|-------------------------------------------------|
A|-------------------------------------------------|
F|-------------------------------------------------|
C|-------------------------------------------------|
G|-----------------------------------0--0--0-------|
C|-----------------------------------0--0--0-------|
                                     .  .  .

  GTR I
d|--x----------------------------------------------|
A|--3----------------------------------------------|
F|--2----------------------------------------------|
C|--0----------------------------------------------|
G|--0-----------x--------0-----8-10----------------|
C|--0-----------x--------0--0----------------------|
                         .                        
                                            
  GTR I
d|--x----------------------------------------------|
A|--3----------------------------------------------|
F|--2----------------------------------------------|
C|--0----------------------------------------------|
G|--0-----------x--------0--0--0-----0--0--0-----0-|
C|--0-----------x--------0--0--0-----0--0--0-----0-|
 |                       .  .  .     .  .  .     .
 |GTR II
d|--x----------------------------------------------|
A|--3----------------------------------------------|
F|--2----------------------------------------------|
C|--0----------------------------------------------|
G|--0-----------x--------0--0--0-----------------0-|
C|--0-----------x--------0--0--0-----------------0-|
                         .  .  .                 .

  GTR I,II
d|--x----------------------------------------------|
A|--3----------------------------------------------|
F|--2----------------------------------------------|
C|--0----------------------------------------------|
G|--0-----------x--------0-----8-10----------------|
C|--0-----------x--------0--0----------------------|
                         .                        

Verse

  GTR I,II
d|--x----------------------------------------------|
A|--3----------------------------------------------|
F|--2----------------------------------------------|
C|--0----------------------------------------------|
G|--0-----------x--------0--0--0-----0--0--0-----0-|
C|--0-----------x--------0--0--0-----0--0--0-----0-|
                         .  .  .     .  .  .     . 

  GTR I,II
d|--x----------------------------------------------|
A|--3----------------------------------------------|
F|--2----------------------------------------------|
C|--0----------------------------------------------|
G|--0-----------x--------0-----8-10----------------|
C|--0-----------x--------0--0----------------------|
                         .                        

  GTR I,II
d|--x----------------------------------------------|
A|--3----------------------------------------------|
F|--2----------------------------------------------|
C|--0----------------------------------------------|
G|--0-----------x--------0--0--0-----0--0--0-----0-|
C|--0-----------x--------0--0--0-----0--0--0-----0-|
                         .  .  .     .  .  .     . 

  GTR I,II
d|--x----------------------------------------------|
A|--3----------------------------------------------|
F|--2----------------------------------------------|
C|--0----------------------------------------------|
G|--0-----------x--------0-----8-10----------------|
C|--0-----------x--------0--0----------------------|
                         .                        

  GTR I,II
d|--x----------------------------------------------|
A|--3----------------------------------------------|
F|--2----------------------------------------------|
C|--0----------------------------------------------|
G|--0-----------x--------0--0--0-----0--0--0-----0-|
C|--0-----------x--------0--0--0-----0--0--0-----0-|
                         .  .  .     .  .  .     . 

  GTR I,II
d|--x----------------------------------------------|
A|--3----------------------------------------------|
F|--2----------------------------------------------|
C|--0-----------------------3--5--5--5--3--5--5--5-|
G|--0-----------------------3--5--5--5--3--5--5--5-|
C|--0-----------------------3--5--5--5--3--5--5--5-|
                                                  
Pre Chorus

  GTR I,II
d|-------------------------------------------------|
A|-------------------------------------------------|
F|-------------------------------------------------|
C|--8--8--8--8--8--8--8--8--8--8--8--8--8--8--8--8-|
G|--8--8--8--8--8--8--8--8--8--8--8--8--8--8--8--8-|
C|--8--8--8--8--8--8--8--8--8--8--8--8--8--8--8--8-|

  GTR I,II
d|-------------------------------------------------|
A|-------------------------------------------------|
F|-------------------------------------------------|
C|--3--3--3--3--3--3--3--3--3--3--3--3--3--3--3--3-|
G|--3--3--3--3--3--3--3--3--3--3--3--3--3--3--3--3-|
C|--3--3--3--3--3--3--3--3--3--3--3--3--3--3--3--3-|

  GTR I,II
d|-------------------------------------------------|
A|-------------------------------------------------|
F|-------------------------------------------------|
C|--3--5--5-----------------3--5--5----------------|
G|--3--5--5-----x--x-----x--3--5--5-----x--x-----x-|
C|--3--5--5-----x--x-----x--3--5--5-----x--x-----x-|

  GTR I,II
d|-------------------------------------------------|
A|-------------------------------------------------|
F|-------------------------------------------------|
C|--3--5--5--5--5--5--3--5--5----------------------|
G|--3--5--5--5--5--5--3--5--5----------------------|
C|--3--5--5--5--5--5--3--5--5----------------------|

Chorus

  GTR I,II
d|--x-----------------------x----------------------|
A|--3-----------------------3----------------------|
F|--2-----------------------2----------------------|
C|--0-----------------------0----------------------|
G|--0-----------0--8--------0-----------0--8-------|
C|--0-----------0-----------0-----------0-----5~---|
                .                       .

  GTR I,II
d|--x--------------------------------------x-------|
A|--3--------------------------------------8-------|
F|--2--------------------------------------7-------|
C|--0--------------------------------------5-------|
G|--0-----------0--3--3--3--3--3--3--0--3--5-------|
C|--0-----------0--3--3--3--3--3--3--0--3--5-------|
                .  .  .  .  .  .  .  .  .

  GTR I,II
d|--x-----------------------x----------------------|
A|--3-----------------------3----------------------|
F|--2-----------------------2----------------------|
C|--0-----------------------0----------------------|
G|--0-----------0--8--------0-----------x----------|
C|--0-----------0-----------0-----------x----------|
                .                        

  GTR I,II
d|--x--------------------------------------x-------|
A|--3--------------------------------------8-------|
F|--2--------------------------------------7-------|
C|--0--------------------------------------5-------|
G|--0-----------0--3--3--3--3--3--3--0--3--5-------|
C|--0-----------0--3--3--3--3--3--3--0--3--5-------|
                .  .  .  .  .  .  .  .  .

Pre Chorus

  GTR I,II
d|-------------------------------------------------|
A|-------------------------------------------------|
F|-------------------------------------------------|
C|--8--8--8--8--8--8--8--8--8--8--8--8--8--8--8--8-|
G|--8--8--8--8--8--8--8--8--8--8--8--8--8--8--8--8-|
C|--8--8--8--8--8--8--8--8--8--8--8--8--8--8--8--8-|

  GTR I,II
d|-------------------------------------------------|
A|-------------------------------------------------|
F|-------------------------------------------------|
C|--3--3--3--3--3--3--3--3--3--3--3--3--3--3--3--3-|
G|--3--3--3--3--3--3--3--3--3--3--3--3--3--3--3--3-|
C|--3--3--3--3--3--3--3--3--3--3--3--3--3--3--3--3-|

  GTR I,II
d|-------------------------------------------------|
A|-------------------------------------------------|
F|-------------------------------------------------|
C|--3--5--5-----------------3--5--5----------------|
G|--3--5--5-----x--x-----x--3--5--5-----x--x-----x-|
C|--3--5--5-----x--x-----x--3--5--5-----x--x-----x-|

  GTR I,II
d|-------------------------------------------------|
A|-------------------------------------------------|
F|-------------------------------------------------|
C|--3--5--5--5--5--5--3--5--5----------------------|
G|--3--5--5--5--5--5--3--5--5----------------------|
C|--3--5--5--5--5--5--3--5--5----------------------|

Verse

  GTR I,II
d|--x----------------------------------------------|
A|--3----------------------------------------------|
F|--2----------------------------------------------|
C|--0----------------------------------------------|
G|--0-----------x--------0--0--0-----0--0--0-----0-|
C|--0-----------x--------0--0--0-----0--0--0-----0-|
                         .  .  .     .  .  .     . 

  GTR I,II
d|--x----------------------------------------------|
A|--3----------------------------------------------|
F|--2----------------------------------------------|
C|--0----------------------------------------------|
G|--0-----------x--------0-----8-10----------------|
C|--0-----------x--------0--0----------------------|
                         .                        

  GTR I,II
d|--x----------------------------------------------|
A|--3----------------------------------------------|
F|--2----------------------------------------------|
C|--0----------------------------------------------|
G|--0-----------x--------0--0--0-----0--0--0-----0-|
C|--0-----------x--------0--0--0-----0--0--0-----0-|
                         .  .  .     .  .  .     . 

  GTR I,II
d|--x----------------------------------------------|
A|--3----------------------------------------------|
F|--2----------------------------------------------|
C|--0----------------------------------------------|
G|--0-----------x--------0-----8-10----------------|
C|--0-----------x--------0--0----------------------|
                         .                        
  GTR I,II
d|--x----------------------------------------------|
A|--3----------------------------------------------|
F|--2----------------------------------------------|
C|--0----------------------------------------------|
G|--0-----------x--------0--0--0-----0--0--0-----0-|
C|--0-----------x--------0--0--0-----0--0--0-----0-|
                         .  .  .     .  .  .     . 

  GTR I,II
d|--x----------------------------------------------|
A|--3----------------------------------------------|
F|--2----------------------------------------------|
C|--0----------------------------------------------|
G|--0-----------x--------0-----8-10----------------|
C|--0-----------x--------0--0----------------------|
                         .                        

  GTR I,II
d|--x----------------------------------------------|
A|--3----------------------------------------------|
F|--2----------------------------------------------|
C|--0----------------------------------------------|
G|--0-----------x--------0--0--0-----0--0--0-----0-|
C|--0-----------x--------0--0--0-----0--0--0-----0-|
                         .  .  .     .  .  .     . 

  GTR I,II
d|--x----------------------------------------------|
A|--3----------------------------------------------|
F|--2----------------------------------------------|
C|--0----------------------------------------------|
G|--0-----------x--------0-----8-10----------------|
C|--0-----------x--------0--0----------------------|
                         .                        

  GTR I,II
d|--x----------------------------------------------|
A|--3----------------------------------------------|
F|--2----------------------------------------------|
C|--0----------------------------------------------|
G|--0-----------x--------0--0--0-----0--0--0-----0-|
C|--0-----------x--------0--0--0-----0--0--0-----0-|
                         .  .  .     .  .  .     . 

  GTR I,II
d|--x----------------------------------------------|
A|--3----------------------------------------------|
F|--2----------------------------------------------|
C|--0-----------------------3--5--5--5--3--5--5--5-|
G|--0-----------------------3--5--5--5--3--5--5--5-|
C|--0-----------------------3--5--5--5--3--5--5--5-|
                                                  
Pre Chorus

  GTR I,II
d|-------------------------------------------------|
A|-------------------------------------------------|
F|-------------------------------------------------|
C|--8--8--8--8--8--8--8--8--8--8--8--8--8--8--8--8-|
G|--8--8--8--8--8--8--8--8--8--8--8--8--8--8--8--8-|
C|--8--8--8--8--8--8--8--8--8--8--8--8--8--8--8--8-|

  GTR I,II
d|-------------------------------------------------|
A|-------------------------------------------------|
F|-------------------------------------------------|
C|--3--3--3--3--3--3--3--3--3--3--3--3--3--3--3--3-|
G|--3--3--3--3--3--3--3--3--3--3--3--3--3--3--3--3-|
C|--3--3--3--3--3--3--3--3--3--3--3--3--3--3--3--3-|

  GTR I,II
d|-------------------------------------------------|
A|-------------------------------------------------|
F|-------------------------------------------------|
C|--3--5--5-----------------3--5--5----------------|
G|--3--5--5-----x--x-----x--3--5--5-----x--x-----x-|
C|--3--5--5-----x--x-----x--3--5--5-----x--x-----x-|

  GTR I,II
d|-------------------------------------------------|
A|-------------------------------------------------|
F|-------------------------------------------------|
C|--3--5--5--5--5--5--3--5--5----------------------|
G|--3--5--5--5--5--5--3--5--5----------------------|
C|--3--5--5--5--5--5--3--5--5----------------------|

Chorus

  GTR I,II
d|--x-----------------------x----------------------|
A|--3-----------------------3----------------------|
F|--2-----------------------2----------------------|
C|--0-----------------------0----------------------|
G|--0-----------0--8--------0-----------0--8-------|
C|--0-----------0-----------0-----------0-----5~---|
                .                       .

  GTR I,II
d|--x--------------------------------------x-------|
A|--3--------------------------------------8-------|
F|--2--------------------------------------7-------|
C|--0--------------------------------------5-------|
G|--0-----------0--3--3--3--3--3--3--0--3--5-------|
C|--0-----------0--3--3--3--3--3--3--0--3--5-------|
                .  .  .  .  .  .  .  .  .

  GTR I,II
d|--x-----------------------x----------------------|
A|--3-----------------------3----------------------|
F|--2-----------------------2----------------------|
C|--0-----------------------0----------------------|
G|--0-----------0--8--------0-----------x----------|
C|--0-----------0-----------0-----------x----------|
                .                        

  GTR I,II
d|--x--------------------------------------x-------|
A|--3--------------------------------------8-------|
F|--2--------------------------------------7-------|
C|--0--------------------------------------5-------|
G|--0-----------0--3--3--3--3--3--3--0--3--5-------|
C|--0-----------0--3--3--3--3--3--3--0--3--5-------|
                .  .  .  .  .  .  .  .  .

Post Chorus

  GTR I,II
d|-------------------------------------------------|
A|-------------------------------------------------|
F|-------------------------------------------------|
C|--8--8--8--8--8--8--8--8--8--8--8--8--8--8--8--8-|
G|--8--8--8--8--8--8--8--8--8--8--8--8--8--8--8--8-|
C|--8--8--8--8--8--8--8--8--8--8--8--8--8--8--8--8-|

  GTR I,II
d|-------------------------------------------------|
A|-------------------------------------------------|
F|-------------------------------------------------|
C|--3--3--3--3--3--3--3--3--3--3--3--3--3--3--3--3-|
G|--3--3--3--3--3--3--3--3--3--3--3--3--3--3--3--3-|
C|--3--3--3--3--3--3--3--3--3--3--3--3--3--3--3--3-|

  GTR I,II
d|-------------------------------------------------|
A|-------------------------------------------------|
F|-------------------------------------------------|
C|--3--5--5-----------------3--5--5----------------|
G|--3--5--5-----x--x-----x--3--5--5-----x--x-----x-|
C|--3--5--5-----x--x-----x--3--5--5-----x--x-----x-|

  GTR I,II
d|-------------------------------------------------|
A|-------------------------------------------------|
F|-------------------------------------------------|
C|--3--5--5--5--5--5--3--5--5----------------------|
G|--3--5--5--5--5--5--3--5--5----------------------|
C|--3--5--5--5--5--5--3--5--5----------------------|
 |
 |GTR III
d|-------------------------------------------------|
A|-------------------------------------------------|
F|-------------------------------------------------|
C|-------------------------------------------------|
G|----------------------------------------13\------|
C|----------------------------------------13\------|

Guitar Solo

  GTR I,II
d|--x----------------------------------------------|
A|--3----------------------------------------------|
F|--2----------------------------------------------|
C|--0----------------------------------------------|
G|--0-----------x--------0--0--0-----0--0--0-----0-|
C|--0-----------x--------0--0--0-----0--0--0-----0-|
 |                       .  .  .     .  .  .     . 
 |GTR III
d|-------------------------------------------------|
A|-------------------------------------------------|
F|-------------------------------------------------|
C|-------------------------------------------------|
G|--------------------5~-------------------5~------|
C|--0--------3-----------------0--3--0--3----------|

  GTR I,II
d|--x----------------------------------------------|
A|--3----------------------------------------------|
F|--2----------------------------------------------|
C|--0----------------------------------------------|
G|--0-----------x--------0-----8-10----------------|
C|--0-----------x--------0--0----------------------|
 |                       .                        
 |GTR III PH.
d|-------------------------------------------------|
A|-------------------------------------------------|
F|--------------------------5----------------------|
C|--------5~-------3--5--7-----7--7--7~------------|
G|--3--5-------------------------------------------|
C|-------------------------------------------------|
 |  .  .           .  .  .     .  . 
 |GTR IV
d|-------------------------------------------------|
A|-------------------------------------/------/----|
F|-------------------------------------/------/----|
C|-------------------------------------/------/----|
G|-------------------------------------------------|
C|-------------------------------------------------|


  GTR I,II
d|--x----------------------------------------------|
A|--3----------------------------------------------|
F|--2----------------------------------------------|
C|--0----------------------------------------------|
G|--0-----------x--------0--0--0-----0--0--0-----0-|
C|--0-----------x--------0--0--0-----0--0--0-----0-|
 |                       .  .  .     .  .  .     . 
 |GTR IV 
d|-------------------------------------------------|
A|--8\---------------------------------------------|
F|--9\----------------------------9b-------7~------|
C|--5\---------------------------------------------|
G|-------------------------------------------------|
C|-------------------------------------------------|

  GTR I,II
d|--x----------------------------------------------|
A|--3----------------------------------------------|
F|--2----------------------------------------------|
C|--0----------------------------------------------|
G|--0-----------x--------0-----8-10----------------|
C|--0-----------x--------0--0----------------------|
 |                       .                        
 |GTR IV
d|-------------------------------------------------|
A|-------------------------------------------------|
F|--9b-------7~---------10b------------------------|
C|-------------------------------------------------|
G|-------------------------------------------------|
C|-------------------------------------------------|

Verse 2

  GTR V
d|-------------------------------------------------|
A|-------------------------------------------------|
F|-------------------------------------------------|
C|-------------------------------------------------|
G|-------------------------------------------------|
C|--0--------------------0--0--0-----0--0--0-----0-|
    .                    .  .  .     .  .  .     .

  GTR V
d|-------------------------------------------------|
A|-------------------------------------------------|
F|-------------------------------------------------|
C|-------------------------------------------------|
G|-------------------------------------------------|
C|--0--------------------0--0--3--5----------------|
    .                    .  .  .  .

  GTR V
d|-------------------------------------------------|
A|-------------------------------------------------|
F|-------------------------------------------------|
C|-------------------------------------------------|
G|-------------------------------------------------|
C|--0--------------------0--0--0-----0--0--0-----0-|
    .                    .  .  .     .  .  .     .

  GTR V
d|-------------------------------------------------|
A|-------------------------------------------------|
F|-------------------------------------------------|
C|-------------------------------------------------|
G|-------------------------------------------------|
C|--0----------------------------------------------|
    .                              

Verse

  GTR I,II
d|--x----------------------------------------------|
A|--3----------------------------------------------|
F|--2----------------------------------------------|
C|--0----------------------------------------------|
G|--0-----------x--------0--0--0-----0--0--0-----0-|
C|--0-----------x--------0--0--0-----0--0--0-----0-|
                         .  .  .     .  .  .     . 

  GTR I,II
d|--x----------------------------------------------|
A|--3----------------------------------------------|
F|--2----------------------------------------------|
C|--0----------------------------------------------|
G|--0-----------x--------0-----8-10----------------|
C|--0-----------x--------0--0----------------------|
                         .                        

  GTR I,II
d|--x----------------------------------------------|
A|--3----------------------------------------------|
F|--2----------------------------------------------|
C|--0----------------------------------------------|
G|--0-----------x--------0--0--0-----0--0--0-----0-|
C|--0-----------x--------0--0--0-----0--0--0-----0-|
                         .  .  .     .  .  .     . 

  GTR I,II
d|--x----------------------------------------------|
A|--3----------------------------------------------|
F|--2----------------------------------------------|
C|--0-----------------------3--5--5--5--3--5--5--5-|
G|--0-----------------------3--5--5--5--3--5--5--5-|
C|--0-----------------------3--5--5--5--3--5--5--5-|
                                                  
Pre Chorus 2

  GTR I,II
d|-------------------------------------------------|
A|-------------------------------------------------|
F|-------------------------------------------------|
C|--8--8--8--8--8--8--8--8--8--8--8--8--8--8--8--8-|
G|--8--8--8--8--8--8--8--8--8--8--8--8--8--8--8--8-|
C|--8--8--8--8--8--8--8--8--8--8--8--8--8--8--8--8-|

  GTR I,II
d|-------------------------------------------------|
A|-------------------------------------------------|
F|-------------------------------------------------|
C|--3--3--3--3--3--3--3--3--3--3--3--3--3--3--3--3-|
G|--3--3--3--3--3--3--3--3--3--3--3--3--3--3--3--3-|
C|--3--3--3--3--3--3--3--3--3--3--3--3--3--3--3--3-|

  GTR I,II
d|-------------------------------------------------|
A|-------------------------------------------------|
F|-------------------------------------------------|
C|--3--5--5--5--5--5--5--5--5--5--5--5--5--5--5--5-|
G|--3--5--5--5--5--5--5--5--5--5--5--5--5--5--5--5-|
C|--3--5--5--5--5--5--5--5--5--5--5--5--5--5--5--5-|

  GTR I,II
d|-------------------------------------------------|
A|-------------------------------------------------|
F|-------------------------------------------------|
C|--5--5--5--5--5--5--3--5--3--5--5--5--5--3--3--3-|
G|--5--5--5--5--5--5--3--5--3--5--5--5--5--3--3--3-|
C|--5--5--5--5--5--5--3--5--3--5--5--5--5--3--3--3-|

  GTR I,II
d|-------------------------------------------------|
A|-------------------------------------------------|
F|-------------------------------------------------|
C|--8--8--8--8--8--8--8--8--8--8--8--8--8--8--8--8-|
G|--8--8--8--8--8--8--8--8--8--8--8--8--8--8--8--8-|
C|--8--8--8--8--8--8--8--8--8--8--8--8--8--8--8--8-|

  GTR I,II
d|-------------------------------------------------|
A|-------------------------------------------------|
F|-------------------------------------------------|
C|--3--3--3--3--3--3--3--3--3--3--3--3--3--3--3--3-|
G|--3--3--3--3--3--3--3--3--3--3--3--3--3--3--3--3-|
C|--3--3--3--3--3--3--3--3--3--3--3--3--3--3--3--3-|

  GTR I,II
d|-------------------------------------------------|
A|-------------------------------------------------|
F|-------------------------------------------------|
C|--3--5--5-----------------3--5--5----------------|
G|--3--5--5-----x--x-----x--3--5--5-----x--x-----x-|
C|--3--5--5-----x--x-----x--3--5--5-----x--x-----x-|

  GTR I,II
d|-------------------------------------------------|
A|-------------------------------------------------|
F|-------------------------------------------------|
C|--3--5--5--5--5--5--3--5--5----------------------|
G|--3--5--5--5--5--5--3--5--5----------------------|
C|--3--5--5--5--5--5--3--5--5----------------------|

Chorus 2

  GTR I,II
d|--x-----------------------x----------------------|
A|--3-----------------------3----------------------|
F|--2-----------------------2----------------------|
C|--0-----------------------0----------------------|
G|--0-----------0--8--------0-----------0--8-------|
C|--0-----------0-----------0-----------0-----5~---|
                .                       .

  GTR I,II
d|--x--------------------------------------x-------|
A|--3--------------------------------------8-------|
F|--2--------------------------------------7-------|
C|--0--------------------------------------5-------|
G|--0-----------0--3--3--3--3--3--3--0--3--5-------|
C|--0-----------0--3--3--3--3--3--3--0--3--5-------|
                .  .  .  .  .  .  .  .  .

  GTR I,II
d|--x-----------------------x----------------------|
A|--3-----------------------3----------------------|
F|--2-----------------------2----------------------|
C|--0-----------------------0----------------------|
G|--0-----------0--8--------0-----------x----------|
C|--0-----------0-----------0-----------x----------|
                .                        

  GTR I,II
d|--x--------------------------------------x-------|
A|--3--------------------------------------8-------|
F|--2--------------------------------------7-------|
C|--0--------------------------------------5-------|
G|--0-----------0--3--3--3--3--3--3--0--3--5-------|
C|--0-----------0--3--3--3--3--3--3--0--3--5-------|
                .  .  .  .  .  .  .  .  .

  GTR I,II
d|--x-----------------------x----------------------|
A|--3-----------------------3----------------------|
F|--2-----------------------2----------------------|
C|--0-----------------------0----------------------|
G|--0-----------0--8--------0-----------0--8-------|
C|--0-----------0-----------0-----------0-----5~---|
                .                       .

  GTR I,II
d|--x--------------------------------------x-------|
A|--3--------------------------------------8-------|
F|--2--------------------------------------7-------|
C|--0--------------------------------------5-------|
G|--0-----------0--3--3--3--3--3--3--0--3--5-------|
C|--0-----------0--3--3--3--3--3--3--0--3--5-------|
                .  .  .  .  .  .  .  .  .

  GTR I,II
d|--x-----------------------x----------------------|
A|--3-----------------------3----------------------|
F|--2-----------------------2----------------------|
C|--0-----------------------0----------------------|
G|--0-----------0--8--------0-----------x----------|
C|--0-----------0-----------0-----------x----------|
                .                        

  GTR I,II
d|--x--------------------------------------x-------|
A|--3--------------------------------------8-------|
F|--2--------------------------------------7-------|
C|--0--------------------------------------5-------|
G|--0-----------0--3--3--3--3--3--3--0--3--5-------|
C|--0-----------0--3--3--3--3--3--3--0--3--5-------|
                .  .  .  .  .  .  .  .  .

Outro

  GTR I,II
d|-------------------------------------------------|
A|-------------------------------------------------|
F|-------------------------------------------------|
C|--8--8--8--8--8--8--8--8--8--8--8--8--8--8--8--8-|
G|--8--8--8--8--8--8--8--8--8--8--8--8--8--8--8--8-|
C|--8--8--8--8--8--8--8--8--8--8--8--8--8--8--8--8-|

  GTR I,II
d|-------------------------------------------------|
A|-------------------------------------------------|
F|-------------------------------------------------|
C|--3--3--3--3--3--3--3--3--3--3--3--3--3--3--3--3-|
G|--3--3--3--3--3--3--3--3--3--3--3--3--3--3--3--3-|
C|--3--3--3--3--3--3--3--3--3--3--3--3--3--3--3--3-|

  GTR I,II
d|-------------------------------------------------|
A|-------------------------------------------------|
F|-------------------------------------------------|
C|--3--5--5--5--5--5--5--5--3--5--5--5--5--5--5--5-|
G|--3--5--5--5--5--5--5--5--3--5--5--5--5--5--5--5-|
C|--3--5--5--5--5--5--5--5--3--5--5--5--5--5--5--5-|

  GTR I,II
d|-------------------------------------------------|
A|-------------------------------------------------|
F|-------------------------------------------------|
C|--3--5--5--5--5--5--3--5--5----------------------|
G|--3--5--5--5--5--5--3--5--5----------------------|
C|--3--5--5--5--5--5--3--5--5----------------------|


| b  bend
| r  release bend
|PH. pinch harmonic
|fbk feedback
| .  palm-mute
| /  slide up
| \  slide down
| h  hammer-on
| p  pull-off
| ~  vibrato
| +  harmonic
| x  Mute note
===============================================================================

            
            
Suggest correction
Creating personal tab
Creating personal tab
You can edit any tab online and save it as your Personal.

You can edit, replace or remove any tab part or add personal notes – all changes will be seen only by you.

Personal tabs can be accessed anytime from any device, even offline.
Learn more »
Give kudos to tab author, rate the tab!
1 2 3 4 5
comments
print report bad tab
guest
You may want to rate the tab now too:
select rating
Wanna post a correction for this tab? Suggest correction