Oops, an error
Loading. Please wait.

Throw Yourself Away Acoustic tab

version 5
version 5

Whole song

Interactive

31 views 1 this week
no commentswrite comment
1 2 3 4 5
3 more votes to show rating
add to favorites
×
Save as Personal and add changes to this tab that will be seen only by you. Learn more ›
×
You can save this tab as Personal to edit and correct it or add notes. All changes will be seen only by you. Learn more »
launch autoscroll
font size
0
reset
how to read this tab
guitar tuner
edit
Autoscroll
slow
fast
+/-
esc
set tempo
stop
Hey guys, I'm a beginner and this is my first tab. I messed around with some tabs for this song and I didn't 
find one that I can actually fully play on my acoustic guitar, so I decided to make my own tab that would 
sound right. It may also work for electric, I'm not sure, since I don't have one. 


[Intro]

  4x                              Then the last time before chorus comes in
D|-------------------------------|-------------------------------------------|
A|-(3)---------------(3)---------|-(3)--------------(3)----------------------|
F|--2-----------------2----------|--2----------------2-----------------------|
C|--0-----xxx-xxx---x-0----0-3-5-|--0-----xxx-xxx--x-0--3-5-5-(5)--3-5-5-(5)-|
G|--0-----xxx-xxx---x-0--0-------|--0-----xxx-xxx--x-0--3-5-5-(5)--3-5-5-(5)-|
C|--0-----xxx-xxx---x-0----------|--0-----xxx-xxx--x-0--3-5-5-(5)--3-5-5-(5)-|


[Chorus]

D|---------------------------------------------------------------------------|
A|---------------------------------------------------------------------------|
F|---------------------------------------------------------------------------|
C|-----8-----3-----5--xx-x-3-5-5--xx-x-3-5-5-3-5-5-3-5-5---------------------|
G|--8x-8--8x-3--2x-5--xx-x-3-5-5--xx-x-3-5-5-3-5-5-3-5-5---------------------|
C|-----8-----3-----5--xx-x-3-5-5--xx-x-3-5-5-3-5-5-3-5-5---------------------|

D|---------------------------------------------------------------------------|
A|-(3)-------(3)--------(3)--------------------------------------------------|
F|--2---------2----------2---------------------------------------------------|
C|--0-----3---0-----3-0--0--xxxx--xxxx--xx-5---------------------------------|
G|--0--(0)----0--(0)-----0--xxxx--xxxx--xx-5---------------------------------|
C|--0---------0----------0--xxxx--xxxx--xx-5---------------------------------|

D|---------------------------------------------------------------------------|
A|-(3)-------(3)--------(3)--------------------------------------------------|
F|--2---------2----------2---------------------------------------------------|
C|--0-----3---0----------0--xxxx--xxxx--xx-5---------------------------------|
G|--0--(0)----0----------0--xxxx--xxxx--xx-5---------------------------------|
C|--0---------0----------0--xxxx--xxxx--xx-5---------------------------------|

D|---------------------------------------------------------------------------|
A|---------------------------------------------------------------------------|
F|---------------------------------------------------------------------------|
C|-----8-----3-----5--xx-x-3-5-5--xx-x-3-5-5-3-5-5-3-5-5---------------------|
G|--8x-8--8x-3--2x-5--xx-x-3-5-5--xx-x-3-5-5-3-5-5-3-5-5---------------------|
C|-----8-----3-----5--xx-x-3-5-5--xx-x-3-5-5-3-5-5-3-5-5---------------------|


[Verse]

  4x                              Then the last time before chorus comes in
D|-------------------------------|-------------------------------------------|
A|-(3)---------------(3)---------|-(3)--------------(3)----------------------|
F|--2-----------------2----------|--2----------------2-----------------------|
C|--0-----xxx-xxx---x-0----0-3-5-|--0-----xxx-xxx--x-0--3-5-5-(5)--3-5-5-(5)-|
G|--0-----xxx-xxx---x-0--0-------|--0-----xxx-xxx--x-0--3-5-5-(5)--3-5-5-(5)-|
C|--0-----xxx-xxx---x-0----------|--0-----xxx-xxx--x-0--3-5-5-(5)--3-5-5-(5)-|


[Chorus]

D|---------------------------------------------------------------------------|
A|---------------------------------------------------------------------------|
F|---------------------------------------------------------------------------|
C|-----8-----3-----5--xx-x-3-5-5--xx-x-3-5-5-3-5-5-3-5-5---------------------|
G|--8x-8--8x-3--2x-5--xx-x-3-5-5--xx-x-3-5-5-3-5-5-3-5-5---------------------|
C|-----8-----3-----5--xx-x-3-5-5--xx-x-3-5-5-3-5-5-3-5-5---------------------|

D|---------------------------------------------------------------------------|
A|-(3)-------(3)--------(3)--------------------------------------------------|
F|--2---------2----------2---------------------------------------------------|
C|--0-----3---0-----3-0--0--xxxx--xxxx--xx-5---------------------------------|
G|--0--(0)----0--(0)-----0--xxxx--xxxx--xx-5---------------------------------|
C|--0---------0----------0--xxxx--xxxx--xx-5---------------------------------|

D|---------------------------------------------------------------------------|
A|-(3)-------(3)--------(3)--------------------------------------------------|
F|--2---------2----------2---------------------------------------------------|
C|--0-----3---0----------0--xxxx--xxxx--xx-5---------------------------------|
G|--0--(0)----0----------0--xxxx--xxxx--xx-5---------------------------------|
C|--0---------0----------0--xxxx--xxxx--xx-5---------------------------------|

D|---------------------------------------------------------------------------|
A|---------------------------------------------------------------------------|
F|---------------------------------------------------------------------------|
C|-----8-----3-----5--xx-x-3-5-5--xx-x-3-5-5-3-5-5-3-5-5---------------------|
G|--8x-8--8x-3--2x-5--xx-x-3-5-5--xx-x-3-5-5-3-5-5-3-5-5---------------------|
C|-----8-----3-----5--xx-x-3-5-5--xx-x-3-5-5-3-5-5-3-5-5---------------------|


[Solo] Sorry, couldn't figure it out, I only have a rhythm guitar part

  2x
D|-------------------------------|
A|-(3)---------------(3)---------|
F|--2-----------------2----------|
C|--0-----xxx-xxx---x-0----0-3-5-|
G|--0-----xxx-xxx---x-0--0-------|
C|--0-----xxx-xxx---x-0----------|


[Verse]

These first two lines aren't played on guitar on record, but you can play them if you want to
D|-------------------------------|-------------------------------------------|
A|-(3)---------------(3)---------|-(3)--------------(3)----------------------|
F|--2-----------------2----------|--2----------------2-----------------------|
C|--0-----xxx-xxx---x-0----0-3-5-|--0-----xxx-xxx--x-0-----------------------|
G|--0-----xxx-xxx---x-0--0-------|--0-----xxx-xxx--x-0-----------------------|
C|--0-----xxx-xxx---x-0----------|--0-----xxx-xxx--x-0-----------------------|

Then guitar comes in
D|-------------------------------|-------------------------------------------|
A|-(3)---------------(3)---------|-(3)--------------(3)----------------------|
F|--2-----------------2----------|--2----------------2-----------------------|
C|--0-----xxx-xxx---x-0----0-3-5-|--0-----xxx-xxx--x-0--3-5-5-(5)--3-5-5-(5)-|
G|--0-----xxx-xxx---x-0--0-------|--0-----xxx-xxx--x-0--3-5-5-(5)--3-5-5-(5)-|
C|--0-----xxx-xxx---x-0----------|--0-----xxx-xxx--x-0--3-5-5-(5)--3-5-5-(5)-|


[The last chorus]

D|---------------------------------------------------------------------------|
A|---------------------------------------------------------------------------|
F|---------------------------------------------------------------------------|
C|-----8-----3-----3-5-5-(5)-------------------------------------------------|
G|--8x-8--8x-3--8x-3-5-5-(5)-------------------------------------------------|
C|-----8-----3-----3-5-5-(5)-------------------------------------------------|

D|---------------------------------------------------------------------------|
A|---------------------------------------------------------------------------|
F|---------------------------------------------------------------------------|
C|-----8-----3-----5--xx-x-3-5-5--xx-x-3-5-5-3-5-5-3-5-5---------------------|
G|--8x-8--8x-3--2x-5--xx-x-3-5-5--xx-x-3-5-5-3-5-5-3-5-5---------------------|
C|-----8-----3-----5--xx-x-3-5-5--xx-x-3-5-5-3-5-5-3-5-5---------------------|

D|---------------------------------------------------------------------------|
A|-(3)-------(3)--------(3)--------------------------------------------------|
F|--2---------2----------2---------------------------------------------------|
C|--0-----3---0-----3-0--0--xxxx--xxxx--xx-5---------------------------------|
G|--0--(0)----0--(0)-----0--xxxx--xxxx--xx-5---------------------------------|
C|--0---------0----------0--xxxx--xxxx--xx-5---------------------------------|

D|---------------------------------------------------------------------------|
A|-(3)-------(3)--------(3)--------------------------------------------------|
F|--2---------2----------2---------------------------------------------------|
C|--0-----3---0----------0--xxxx--xxxx--xx-5---------------------------------|
G|--0--(0)----0----------0--xxxx--xxxx--xx-5---------------------------------|
C|--0---------0----------0--xxxx--xxxx--xx-5---------------------------------|

D|---------------------------------------------------------------------------|
A|-(3)-------(3)--------(3)--------------------------------------------------|
F|--2---------2----------2---------------------------------------------------|
C|--0-----3---0-----3-0--0--xxxx--xxxx--xx-5---------------------------------|
G|--0--(0)----0--(0)-----0--xxxx--xxxx--xx-5---------------------------------|
C|--0---------0----------0--xxxx--xxxx--xx-5---------------------------------|

D|---------------------------------------------------------------------------|
A|-(3)-------(3)--------(3)--------------------------------------------------|
F|--2---------2----------2---------------------------------------------------|
C|--0-----3---0----------0--xxxx--xxxx--xx-5---------------------------------|
G|--0--(0)----0----------0--xxxx--xxxx--xx-5---------------------------------|
C|--0---------0----------0--xxxx--xxxx--xx-5---------------------------------|

D|---------------------------------------------------------------------------|
A|---------------------------------------------------------------------------|
F|---------------------------------------------------------------------------|
C|-----8-----3-----3-5-5-(5)--3-5--------------------------------------------|
G|--8x-8--8x-3--6x-3-5-5-(5)--3-5--------------------------------------------|
C|-----8-----3-----3-5-5-(5)--3-5--------------------------------------------|


************************************

| x    Dead note
| (n)  Ghost note

************************************
Suggest correction
Creating personal tab
Creating personal tab
You can edit any tab online and save it as your Personal.

You can edit, replace or remove any tab part or add personal notes – all changes will be seen only by you.

Personal tabs can be accessed anytime from any device, even offline.
Learn more »
Give kudos to tab author, rate the tab!
1 2 3 4 5
comments
print report bad tab
guest
You may want to rate the tab now too:
select rating
Wanna post a correction for this tab? Suggest correction