Oops, an error
Loading. Please wait.

Too Bad Bass Tab

version 3
version 3

Whole song

Interactive

2,880 views 1 this week
1 commentread comment
1 2 3 4 5
please rate
add to favorites
launch autoscroll
font size
0
reset
guitar tuner
Autoscroll
slow
fast
+/-
esc
set tempo
stop
Help us to improve Ultimate-Guitar.com Take our survey!
×
Author
======================
 Nickelback - Too Bad
======================
from the album Silver Side Up
Tabbed by: unspeakable.elvis@gmail.com

5-string, drop D tuning (low to high: A,D,A,D,G)

All those bad-ass slides are in there for a reason.

r - short rest

Intro
||-------||
||-------||
||-rest--||
||-------||
||-------||

"...from long days in the field.  Mother..."
||------------------------|-------------------|
||------------------------|-------------------|
||-rest-------------------|-(drums)-----------|
||------------------------|---------8\--------|
||------------------------|-------------------|

|---------------|-------------|----------------|
|---------------|-------------|----------------|
|---------------|-------------|----------------|
|-1-r-1-------1-|-3-r-3-----3-|-3-r-3-----3-1--|
|---------------|-------------|----------------|

|---------------|-------------|---------------|--------------|
|---------------|-------------|---------------|--------------|
|---------------|-------------|---------------|----------3-1-|
|---------------|-1-r-1-----1-|-3-r-3-------3-|-3-r-3-r------|
|-3-r-3-------3-|-------------|---------------|--------------|

                                       "so bad, so bad...."
|---------------|-------------|---------------|--------------||
|---------------|-------------|---------------|--------------||
|---------------|-------------|---------------|--------------||
|-----------8-r-|-8-----------|---------------|--------------||
|-3-r-3---------|-----------8-|-8-----------8-|-8\-----------||

Chorus (2)
||-----------------|-----------------|
||-----------------|-----------------|
||-----------------|-----------------|
||-6-6-6-6-6-6-6-6-|-----------------|
||-----------------|-6-6-6-6-6-6-6-6-|

|-----------------|-----------------||
|-----------------|-----------------||
|-----------------|-----------------||
|-----------------|-----------------||
|-6h8-8-6-6h8-8-6-|-6h8-8-6-6h8-8-8-||

|---------------|-------------|---------------|---------------|
|---------------|-------------|---------------|---------------|
|---------------|-------------|---------------|---------------|
|---------------|-1-r-1-----3-|-3-r-3---------|-3-r--3-1-3-1--|
|-3-r-3-------3-|-------------|---------------|---------------|

Verse
"You left without saying goodbye..."
|---------------|-------------|---------------|---------------|
|---------------|-------------|---------------|---------------|
|---------------|-------------|---------------|---------------|
|---------------|-1-r-1-----1-|-3-r-3-------3-|-3-r-3---------|
|-3-r-3-------3-|-------------|---------------|---------------|

|---------------|-------------|---------------|---------------|
|---------------|-------------|---------------|---------------|
|---------------|-------------|---------------|---------------|
|---------------|-1-r-1-----1-|-3-r-3-------1-|-3-r-1-3-1-----|
|-3-r-3-------3-|-------------|---------------|---------------|

|---------------|-------------|---------------|---------------|
|---------------|-------------|---------------|---------------|
|---------------|-------------|---------------|---------------|
|---------------|-1-r-1-----1-|-3-------------|-3--------\----|
|-3-r-3-------3-|-------------|---------------|---------------|

|---------------|-------------|---------------|--------------||
|---------------|-------------|---------------|--------------||
|---------------|-------------|---------------|--------------||
|---------------|-8-----------|---------------|--------------||
|-3-r-3---------|-----------8-|-8-----------8-|-8\-----------||

Repeat chorus

Interlude/solo
|---------------|-------------|---------------|---------------|
|---------------|-------------|---------------|---------------|
|---------------|----------3\-|---------------|---------------|
|---------------|-1-r-1-------|-3-r-3-------1-|-3-1-3---1-----|
|-3-r-3-------3-|-------------|---------------|---------------|

|---------------|-------------|---------------|---------------|
|---------------|-------------|---------------|---------------|
|---------------|-------------|---------------|---------------|
|---------------|-1-r-1-------|-3-r-3-------3-|--3--3--3--3-3-|
|-3-r-3-------3-|-------------|---------------|---------------|

|---------------|-------------|---------------|---------------|
|---------------|-------------|---------------|---------------|
|---------------|----------3\-|---------------|---------------|
|---------------|-1-r-1-------|-3-r-3-------1-|-3-1-3---1-----|
|-3-r-3-------3-|-------------|---------------|---------------|

|---------------|-------------|---------------|---------------|
|---------------|-------------|---------------|---------------|
|---------------|----------3\-|---------------|---------------|
|---------------|-1-r-1-------|-3---3-------1-|-3-1-3---3-3-r-|
|-3-r-3-------3-|-------------|---------------|---------------|

|-----------------------------||
|-----------------------------||
|-3---------------------------||
|-----------------------------||
|-----------------------------||

Intro again
               "Guess it..."
||-------------|---------------|
||-------------|---------------|
||-rest--------|---------------|
||-------------|-8\------------|
||-------------|---------------|

|---------------|-------------|----------------|
|---------------|-------------|----------------|
|---------------|-------------|----------------|
|-1-r-1-------1-|-3-----------|-3-----r-1-3-1--|
|---------------|-------------|----------------|

|---------------|-------------|---------------|---------------|
|---------------|-------------|---------------|---------------|
|---------------|-------------|---------------|---------------|
|---------------|-1-r-1-----1-|-3-r-3-------1-|-3-1-r---------|
|-3-r-3-------3-|-------------|---------------|-----------6\--|

|---------------|-------------|---------------|--------------||
|---------------|-------------|---------------|--------------||
|---------------|-------------|---------------|--------------||
|-----------8-r-|-8-----------|---------------|--------------||
|-3-r-3---------|-----------8-|-8-----------8-|-8------------||

Chorus

Outro
||---------------|-------------|---------------|--------------|
||---------------|-------------|---------------|--------------|
||---------------|-------------|---------------|--------------|
||-6-r-6---------|-1-r-1-------|-3-r-3---------|-3-r-3--------|
||---------------|-------------|---------------|--------------|

|---------------|-------------|------------------||
|---------------|-------------|------------------||
|---------------|-------------|------------------||
|-6-------------|-1---------3-|-3----------------||
|---------------|-------------|------------------||

End!
Suggest correction
Give kudos to tab author, rate the tab!
1 2 3 4 5
comments
print report bad tab
1 comment total.
0 reply
Chickencha 10 wrote on September 29 2009, 12:20 pm

The actual notes you have down look mostly correct, but why the funky tuning? You can easily play it in standard on a five-string.

guest
You may want to rate the tab now too:
select rating
Please do not post tabs as comments. Select "correction" instead!