Oops, an error
Loading. Please wait.

Too Bad Bass Tab

version 4
version 4

Whole song

Interactive

747 views 1 this week
no commentswrite comment
1 2 3 4 5
3 more votes to show rating
add to favorites
launch autoscroll
font size
0
reset
guitar tuner
Autoscroll
slow
fast
+/-
esc
set tempo
stop
Help us to improve Ultimate-Guitar.com Take our survey!
×
Author
Difficulty
Howdy people. It's me again! I am - yet again - making a tab for 5-String Bass since 
Kroeger plays on five strigs. Duh! So anyways,
Imma tab this out and tell me what you think. This is how i like to play
it, so just enjoy and see how it feels for you. Love, Craig!

Verse:
G|----------------|----------------|----------------|----------------|
D|----------------|----------------|----------------|----------------|
A|------6\--------|----------------|----------------|----------------|
E|----------------|----------------|--1-1~----1-1~--|----------------|
B|----------------|------4-4~------|----------------|------6-4~------|

G|----------------|----------------|----------------|----------------|
D|----------------|----------------|----------------|----------------|
A|----------------|----------------|----------------|----------------|
E|----------------|----------------|--1-1~----1-1~--|----------------|
B|------1-1~------|------4-4~------|----------------|------6-3~------|

G|----------------|----------------|----------------|----------------|
D|----------------|----------------|----------------|----------------|
A|----------------|----------------|----------------|-----3~-1~------|
E|----------------|----------------|---1-1~-1-1-----|----------------|
B|------1-1~------|------4-4~------|----------------|----------~-----|

G|----------------|----------------|----------------|----------------|
D|----------------|----------------|----------------|----------------|
A|----------------|----------------|----------------|----------------|
E|----------------|----------------|------1-1~------|----------------|
B|------1-1~------|------1-1~------|----------------|----------------|

Chorus:
G|--------------------------------------|
D|--------------------------------------|
A|--------------------------------------|
E|--------------------------------------| x2
B|-999999944444444--44h6-44h6-44h6-44h6-|

Verse:
G|----------------|----------------|----------------|----------------|
D|----------------|----------------|----------------|----------------|
A|------6\--------|----------------|----------------|----------------|
E|----------------|----------------|--1-1~----1-1~--|----------------|
B|----------------|------4-4~------|----------------|------6-4~------|

G|----------------|----------------|----------------|----------------|
D|----------------|----------------|----------------|----------------|
A|----------------|----------------|----------------|----------------|
E|----------------|----------------|--1-1~----1-1~--|----------------|
B|------1-1~------|------4-4~------|----------------|------6-3~------|

G|----------------|----------------|----------------|----------------|
D|----------------|----------------|----------------|----------------|
A|----------------|----------------|----------------|-----3~-1~------|
E|----------------|----------------|---1-1~-1-1-----|----------------|
B|------1-1~------|------4-4~------|----------------|----------~-----|

G|----------------|----------------|----------------|----------------|
D|----------------|----------------|----------------|----------------|
A|----------------|----------------|----------------|----------------|
E|----------------|----------------|------1-1~------|----------------|
B|------1-1~------|------1-1~------|----------------|----------------|

Chorus:
G|------------------------------------------|
D|------------------------------------------|
A|------------------------------------------|
E|------------------------------------------| x4
B|-9999999944444444-44h66-44h66-44h66-44h66-|

Solo:
G|----------------|----------------|----------------|----------------|
D|----------------|----------------|----------------|----------------|
A|----------------|----------------|----------------|----------------|
E|----------------|----------------|----------------|----------------|x4
B|------1-1~------|------4-4~------|--6-6~----6-6~--|------6-4~------|

Verse:
G|----------------|----------------|----------------|----------------|
D|----------------|----------------|----------------|----------------|
A|------6\--------|----------------|----------------|----------------|
E|----------------|----------------|--1-1~----1-1~--|----------------|
B|----------------|------4-4~------|----------------|------6-4~------|

G|----------------|----------------|----------------|----------------|
D|----------------|----------------|----------------|----------------|
A|----------------|----------------|----------------|----------------|
E|----------------|----------------|--1-1~----1-1~--|----------------|
B|------1-1~------|------4-4~------|----------------|------6-3~------|

G|----------------|----------------|----------------|----------------|
D|----------------|----------------|----------------|----------------|
A|----------------|----------------|----------------|------3-1~------|
E|----------------|----------------|----------------|----------------|
B|------1-1~------|------4-4~------|------6-6~-6-6--|----------------|

G|----------------|----------------|----------------|----------------|
D|----------------|----------------|----------------|----------------|
A|----------------|----------------|----------------|----------------|
E|----------------|----------------|------1-1~------|----------------|
B|------1-1~------|------1-1~------|----------------|----------------|

Chorus:
G|------------------------------------------|
D|------------------------------------------|
A|------------------------------------------|
E|------------------------------------------| x4
B|-9999999944444444-44h66-44h66-44h66-44h66-|


Outro:
G|----------------|----------------|----------------|----------------|
D|----------------|----------------|----------------|----------------|
A|----------------|----------------|----------------|----------------|
E|----------------|----------------|--1-1~----1-1~--|----------------|x2
B|------1-1~------|------4-4~------|----------------|------6-4~------|

Comments and corrections? Get me at craig-bass1995@hotmail.co.uk
Suggest correction
Give kudos to tab author, rate the tab!
1 2 3 4 5
comments
print report bad tab
guest
You may want to rate the tab now too:
select rating
Wanna post a correction for this tab? Suggest correction