Oops, an error
Loading. Please wait.

Too Bad tab

version 7
version 7
3,574 views 1 this week
no commentswrite comment
1 2 3 4 5
1 last vote to show rating
add to favorites
×
Save as Personal and add changes to this tab that will be seen only by you. Learn more ›
×
You can save this tab as Personal to edit and correct it or add notes. All changes will be seen only by you. Learn more »
launch autoscroll
font size
0
reset
how to read this tab
guitar tuner
edit
Autoscroll
slow
fast
+/-
esc
set tempo
stop
Too Bad
Nickelback
Silver Side Up (2001)

Too Bad:  written by Chad Kroeger and Nickelback

NOTE: I couldn't figure out the solo.

GTR I - Drop C Tuning "Chad Kroeger" Distortion (d,A,F,C,G,C)
GTR II - Drop C Tuning "Ryan Peake" Distortion(d,A,F,C,G,C)
GTR III - Drop C Tuning "Ryan Peake" Clean w. Tremelo (d,A,F,C,G,C)
GTR IV - Drop C Tuning "Chad Kroeger" Distortion w. slide (d,A,F,C,G,C)
GTR V - Drop C Tuning "Chad Kroeger" Distortion (solo) (d,A,F,C,G,C)
GTR VI - Drop C Tuning "Ryan Peake" Distortion (solo) (d,A,F,C,G,C)

Intro

  GTR III
d|-------------------------------------------------|
A|-------------------------------------------------|
F|-------------------------------------------------|
C|--7-----7-----7-----7-----7-----7-----7-----7----|
G|-------------------------------------------------|
C|-----0-----0-----0-----0-----0-----0-----0-----0-|

  GTR III
d|-------------------------------------------------|
A|-------------------------------------------------|
F|-------------------------------------------------|
C|--7-----7-----7-----7-----7-----7-----7-----7----|
G|-------------------------------------------------|
C|-----0-----0-----0-----0-----3-----3-----3-----3-|

  GTR III
d|-------------------------------------------------|
A|-------------------------------------------------|
F|-------------------------------------------------|
C|--7-----7-----7-----7-----7-----7-----7-----7----|
G|-------------------------------------------------|
C|-----5-----5-----5-----5-----5-----5-----5-----5-|

Verse

  GTR III
d|-------------------------------------------------|
A|-------------------------------------------------|
F|-------------------------------------------------|
C|--7-----7-----7-----7-----7-----7-----7-----7----|
G|-------------------------------------------------|
C|-----0-----0-----0-----0-----3-----3-----3-----3-|

  GTR III
d|-------------------------------------------------|
A|-------------------------------------------------|
F|-------------------------------------------------|
C|--7-----7-----7-----7-----7-----7-----7-----7----|
G|-------------------------------------------------|
C|-----5-----5-----5-----5-----5-----5-----5-----5-|

  GTR III
d|-------------------------------------------------|
A|-------------------------------------------------|
F|-------------------------------------------------|
C|--7-----7-----7-----7-----7-----7-----7-----7----|
G|-------------------------------------------------|
C|-----0-----0-----0-----0-----3-----3-----3-----3-|

  GTR III
d|-------------------------------------------------|
A|-------------------------------------------------|
F|-------------------------------------------------|
C|--7-----7-----7-----7-----7-----7-----7-----7----|
G|-------------------------------------------------|
C|-----5-----5-----5-----5-----5-----5-----5-----5-|

  GTR III
d|-------------------------------------------------|
A|-------------------------------------------------|
F|-------------------------------------------------|
C|--7-----7-----7-----7-----7-----7-----7-----7----|
G|-------------------------------------------------|
C|-----0-----0-----0-----0-----3-----3-----3-----3-|

  GTR I,II
d|-------------------------------------------------|
A|-------------------------------------------------|
F|-------------------------------------------------|
C|-----------------------------------------x--x----|
G|-----------------------------------------x--x----|
C|-----------------------------------------x--x----|
 |                                             
 |GTR III
d|-------------------------------------------------|
A|-------------------------------------------------|
F|-------------------------------------------------|
C|--7-----7-----7-----7----------------------------|
G|-------------------------------------------------|
C|-----5-----5-----5-----5\------------------------|

Chorus

  GTR I
d|-------------------------------------------------|
A|-------------------------------------------------|
F|-------------------------------------------------|
C|--8--8--8--8--8--8--8--8--3--3--3--3--3--3--3--3-|
G|--8--8--8--8--8--8--8--8--3--3--3--3--3--3--3--3-|
C|--8--8--8--8--8--8--8--8--3--3--3--3--3--3--3--3-|
 |                                             
 |GTR II
d|-------------------------------------------------|
A|-------------------------------------------------|
F|-------------------------10-10-10-10-10-10-10-10-|
C|--8--8--8--8--8--8--8--8-10-10-10-10-10-10-10-10-|
G|--8--8--8--8--8--8--8--8--8--8--8--8--8--8--8--8-|
C|--8--8--8--8--8--8--8--8-------------------------|

  GTR I,II
d|-------------------------------------------------|
A|-------------------------------------------------|
F|-------------------------------------------------|
C|--3--5--5--3--3--5--5--3--3--5--5--3--3--5--5--3-|
G|--3--5--5--3--3--5--5--3--3--5--5--3--3--5--5--3-|
C|--3--5--5--3--3--5--5--3--3--5--5--3--3--5--5--3-|

  GTR I
d|-------------------------------------------------|
A|-------------------------------------------------|
F|-------------------------------------------------|
C|--8--8--8--8--8--8--8--8--3--3--3--3--3--3--3--3-|
G|--8--8--8--8--8--8--8--8--3--3--3--3--3--3--3--3-|
C|--8--8--8--8--8--8--8--8--3--3--3--3--3--3--3--3-|
 |                                             
 |GTR II
d|-------------------------------------------------|
A|-------------------------------------------------|
F|-------------------------10-10-10-10-10-10-10-10-|
C|--8--8--8--8--8--8--8--8-10-10-10-10-10-10-10-10-|
G|--8--8--8--8--8--8--8--8--8--8--8--8--8--8--8--8-|
C|--8--8--8--8--8--8--8--8-------------------------|

  GTR I,II
d|-------------------------------------------------|
A|-------------------------------------------------|
F|-------------------------------------------------|
C|--3--5--5--3--3--5--5--3--3--5--5--3--3--5--5--3-|
G|--3--5--5--3--3--5--5--3--3--5--5--3--3--5--5--3-|
C|--3--5--5--3--3--5--5--3--3--5--5--3--3--5--5--3-|

Post Chorus

  GTR I,II
d|-------------------------------------------------|
A|-------------------------------------------------|
F|--7----------------------------------------------|
C|--7----------------------------------------------|
G|--5----------------------------------------------|
C|-------------------------------------------------|
 |                                             
 |GTR III
d|-------------------------------------------------|
A|-------------------------------------------------|
F|-------------------------------------------------|
C|--7-----7-----7-----7-----7-----7-----7-----7----|
G|-------------------------------------------------|
C|-----0-----0-----0-----0-----3-----3-----3-----3-|

  GTR III
d|-------------------------------------------------|
A|-------------------------------------------------|
F|-------------------------------------------------|
C|--7-----7-----7-----7-----7-----7-----7-----7----|
G|-------------------------------------------------|
C|-----5-----5-----5-----5-----5-----5-----5-----5-|
 |                                             
 |GTR IV
d|-------------------------------------------------|
A|-------------------------------------------------|
F|----------------------------14\------------------|
C|-------------------------------------------------|
G|-------------------------------------------------|
C|-------------------------------------------------|

Verse 2

  GTR III
d|-------------------------------------------------|
A|-------------------------------------------------|
F|-------------------------------------------------|
C|--7-----7-----7-----7-----7-----7-----7-----7----|
G|-------------------------------------------------|
C|-----0-----0-----0-----0-----3-----3-----3-----3-|
 |                                             
 |GTR IV
d|-------------------------------------------------|
A|-------------------------------------------------|
F|-16\---------------------------------------------|
C|-------------------------------------------------|
G|-------------------------------------------------|
C|-------------------------------------------------|

  GTR III
d|-------------------------------------------------|
A|-------------------------------------------------|
F|-------------------------------------------------|
C|--7-----7-----7-----7-----7-----7-----7-----7----|
G|-------------------------------------------------|
C|-----5-----5-----5-----5-----5-----5-----5-----5-|
 |                                             
 |GTR IV
d|-------------------------------------------------|
A|-------------------------------------------12\---|
F|-------------------------------------------------|
C|-------------------------------------------------|
G|-------------------------------------------------|
C|-------------------------------------------------|

  GTR III
d|-------------------------------------------------|
A|-------------------------------------------------|
F|-------------------------------------------------|
C|--7-----7-----7-----7-----7-----7-----7-----7----|
G|-------------------------------------------------|
C|-----0-----0-----0-----0-----3-----3-----3-----3-|

  GTR III
d|-------------------------------------------------|
A|-------------------------------------------------|
F|-------------------------------------------------|
C|--7-----7-----7-----7-----7-----7-----7-----7----|
G|-------------------------------------------------|
C|-----5-----5-----5-----5-----5-----5-----5-----5-|
 |                                             
 |GTR IV
d|-------------------------------------------------|
A|-------------------------------------------12\---|
F|-------------------------------------------------|
C|-------------------------------------------------|
G|-------------------------------------------------|
C|-------------------------------------------------|

  GTR III
d|-------------------------------------------------|
A|-------------------------------------------------|
F|-------------------------------------------------|
C|--7-----7-----7-----7-----7-----7-----7-----7----|
G|-------------------------------------------------|
C|-----0-----0-----0-----0-----3-----3-----3-----3-|

  GTR III
d|-------------------------------------------------|
A|-------------------------------------------------|
F|-------------------------------------------------|
C|--7-----7-----7-----7-----7-----7-----7-----7----|
G|-------------------------------------------------|
C|-----5-----5-----5-----5-----5-----5-----5-----5-|
 |                                             
 |GTR IV
d|-------------------------------------------------|
A|-------------------------------------------12\---|
F|-------------------------------------------------|
C|-------------------------------------------------|
G|-------------------------------------------------|
C|-------------------------------------------------|

  GTR III
d|-------------------------------------------------|
A|-------------------------------------------------|
F|-------------------------------------------------|
C|--7-----7-----7-----7-----7-----7-----7-----7----|
G|-------------------------------------------------|
C|-----0-----0-----0-----0-----3-----3-----3-----3-|

  GTR I,II
d|-------------------------------------------------|
A|-------------------------------------------------|
F|-------------------------------------------------|
C|-----------------------------------------x--x----|
G|-----------------------------------------x--x----|
C|-----------------------------------------x--x----|
 |                                             
 |GTR III
d|-------------------------------------------------|
A|-------------------------------------------------|
F|-------------------------------------------------|
C|--7-----7-----7-----7----------------------------|
G|-------------------------------------------------|
C|-----5-----5-----5-----5\------------------------|

Chorus

Chorus 2

  GTR I
d|-------------------------------------------------|
A|-------------------------------------------------|
F|-------------------------------------------------|
C|--8--8--8--8--8--8--8--8--3--3--3--3--3--3--3--3-|
G|--8--8--8--8--8--8--8--8--3--3--3--3--3--3--3--3-|
C|--8--8--8--8--8--8--8--8--3--3--3--3--3--3--3--3-|
 |                                             
 |GTR II
d|-------------------------------------------------|
A|-------------------------------------------------|
F|-------------------------10-10-10-10-10-10-10-10-|
C|--8--8--8--8--8--8--8--8-10-10-10-10-10-10-10-10-|
G|--8--8--8--8--8--8--8--8--8--8--8--8--8--8--8--8-|
C|--8--8--8--8--8--8--8--8-------------------------|

  GTR I,II
d|-------------------------------------------------|
A|-------------------------------------------------|
F|-------------------------------------------------|
C|--3--5--5--3--3--5--5--3--3--5--5--3--3--5--5--3-|
G|--3--5--5--3--3--5--5--3--3--5--5--3--3--5--5--3-|
C|--3--5--5--3--3--5--5--3--3--5--5--3--3--5--5--3-|

  GTR I
d|-------------------------------------------------|
A|-------------------------------------------------|
F|-------------------------------------------------|
C|--8--8--8--8--8--8--8--8--3--3--3--3--3--3--3--3-|
G|--8--8--8--8--8--8--8--8--3--3--3--3--3--3--3--3-|
C|--8--8--8--8--8--8--8--8--3--3--3--3--3--3--3--3-|
 |                                             
 |GTR II
d|-------------------------------------------------|
A|-------------------------------------------------|
F|-------------------------10-10-10-10-10-10-10-10-|
C|--8--8--8--8--8--8--8--8-10-10-10-10-10-10-10-10-|
G|--8--8--8--8--8--8--8--8--8--8--8--8--8--8--8--8-|
C|--8--8--8--8--8--8--8--8-------------------------|

  GTR I,II
d|-------------------------------------------------|
A|-------------------------------------------------|
F|-------------------------------------------------|
C|--3--5--5--3--3--5--5--3--3--5--5--3--3--5--5--3-|
G|--3--5--5--3--3--5--5--3--3--5--5--3--3--5--5--3-|
C|--3--5--5--3--3--5--5--3--3--5--5--3--3--5--5--3-|

Guitar Solo

  GTR I,II
d|-------------------------------------------------|
A|-------------------------------------------------|
F|-------------------------------------------------|
C|-------------------------------------------------|
G|-------------------------------------------------|
C|--0--------------------2--3---------/12----------|

  GTR I,II
d|-------------------------------------------------|
A|-------------------------------------------------|
F|-------------------------------------------------|
C|-------------------------------------------------|
G|-------------------------------------------------|
C|--5--------------------------------------3-------|

  GTR I,II
d|-------------------------------------------------|
A|-------------------------------------------------|
F|-------------------------------------------------|
C|-------------------------------------------------|
G|-------------------------------------------------|
C|--0--------------------2--3---------/12----------|

  GTR I,II
d|-------------------------------------------------|
A|-------------------------------------------------|
F|-------------------------------------------------|
C|-------------------------------------------------|
G|-------------------------------------------------|
C|--5----------------------------------------------|

  GTR I,II
d|-------------------------------------------------|
A|-------------------------------------------------|
F|-------------------------------------------------|
C|-------------------------------------------------|
G|-------------------------------------------------|
C|--0--------------------2--3---------/12----------|

  GTR I,II
d|-------------------------------------------------|
A|-------------------------------------------------|
F|-------------------------------------------------|
C|-------------------------------------------------|
G|-----------------------------------------3-------|
C|--5----------------------------------------------|

  GTR I,II
d|-------------------------------------------------|
A|-------------------------------------------------|
F|-------------------------------------------------|
C|-------------------------------------------------|
G|-------------------------------------------------|
C|--0--------------------2--3---------/12----------|

  GTR I,II
d|-------------------------------------------------|
A|-------------------------------------------------|
F|-------------------------------------------------|
C|--------------------------------------x--x-------|
G|--------------------------------------x--x-------|
C|--5-----------------------------------x--x-------|

Post Solo

  GTR I,II
d|-------------------------------------------------|
A|-------------------------------------------------|
F|-------------------------------------------------|
C|--0----------------------------------------------|
G|--0----------------------------------------------|
C|--0----------------------------------------------|
 |                                             
 |GTR III
d|-------------------------------------------------|
A|-------------------------------------------------|
F|-------------------------------------------------|
C|--7-----7-----7-----7-----7-----7-----7-----7----|
G|-------------------------------------------------|
C|-----0-----0-----0-----0-----0-----0-----0-----0-|

  GTR III
d|-------------------------------------------------|
A|-------------------------------------------------|
F|-------------------------------------------------|
C|--7-----7-----7-----7-----7-----7-----7-----7----|
G|-------------------------------------------------|
C|-----0-----0-----0-----0-----3-----3-----3-----3-|

  GTR III
d|-------------------------------------------------|
A|-------------------------------------------------|
F|-------------------------------------------------|
C|--7-----7-----7-----7-----7----------------------|
G|--------------------------5----------------------|
C|-----5-----5-----5-----5--5----------------------|

Verse 3

  GTR III
d|-------------------------------------------------|
A|-------------------------------------------------|
F|-------------------------------------------------|
C|--------------7-----7-----7-----7-----7-----7----|
G|-------------------------------------------------|
C|-----------------0-----0-----3-----3-----3-----3-|

  GTR III
d|-------------------------------------------------|
A|-------------------------------------------------|
F|-------------------------------------------------|
C|--7-----7-----7-----7-----7-----7-----7-----7----|
G|-------------------------------------------------|
C|-----5-----5-----5-----5-----5-----5-----5-----5-|

  GTR III
d|-------------------------------------------------|
A|-------------------------------------------------|
F|-------------------------------------------------|
C|--7-----7-----7-----7-----7-----7-----7-----7----|
G|-------------------------------------------------|
C|-----0-----0-----0-----0-----3-----3-----3-----3-|

  GTR III
d|-------------------------------------------------|
A|-------------------------------------------------|
F|-------------------------------------------------|
C|--7-----7-----7-----7-----7-----7-----7-----7----|
G|-------------------------------------------------|
C|-----5-----5-----5-----5-----5-----5-----5-----5-|

  GTR III
d|-------------------------------------------------|
A|-------------------------------------------------|
F|-------------------------------------------------|
C|--7-----7-----7-----7-----7-----7-----7-----7----|
G|-------------------------------------------------|
C|-----0-----0-----0-----0-----3-----3-----3-----3-|

  GTR III
d|-------------------------------------------------|
A|-------------------------------------------------|
F|-------------------------------------------------|
C|--7-----7-----7-----7----------------------------|
G|-------------------------------------------------|
C|-----5-----5-----5-----5-------------------------|

  GTR I,II
d|-------------------------|
A|-------------------------|
F|-------------------------|
C|-----------------x--x----|
G|-----------------x--x----|
C|-----------------x--x----|

Chorus

Chorus 3

  GTR I
d|-------------------------------------------------|
A|-------------------------------------------------|
F|-------------------------------------------------|
C|--8--8--8--8--8--8--8--8--3--3--3--3--3--3--3--3-|
G|--8--8--8--8--8--8--8--8--3--3--3--3--3--3--3--3-|
C|--8--8--8--8--8--8--8--8--3--3--3--3--3--3--3--3-|
 |                                             
 |GTR II
d|-------------------------------------------------|
A|-------------------------------------------------|
F|-------------------------10-10-10-10-10-10-10-10-|
C|--8--8--8--8--8--8--8--8-10-10-10-10-10-10-10-10-|
G|--8--8--8--8--8--8--8--8--8--8--8--8--8--8--8--8-|
C|--8--8--8--8--8--8--8--8-------------------------|

  GTR I,II
d|-------------------------------------------------|
A|-------------------------------------------------|
F|-------------------------------------------------|
C|--3--5--5--3--3--5--5--3--3--5--5--3--3--5--5--3-|
G|--3--5--5--3--3--5--5--3--3--5--5--3--3--5--5--3-|
C|--3--5--5--3--3--5--5--3--3--5--5--3--3--5--5--3-|

  GTR I
d|-------------------------------------------------|
A|-------------------------------------------------|
F|-------------------------------------------------|
C|--8--8--8--8--8--8--8--8--3--3--3--3--3--3--3--3-|
G|--8--8--8--8--8--8--8--8--3--3--3--3--3--3--3--3-|
C|--8--8--8--8--8--8--8--8--3--3--3--3--3--3--3--3-|
 |                                             
 |GTR II
d|-------------------------------------------------|
A|-------------------------------------------------|
F|-------------------------10-10-10-10-10-10-10-10-|
C|--8--8--8--8--8--8--8--8-10-10-10-10-10-10-10-10-|
G|--8--8--8--8--8--8--8--8--8--8--8--8--8--8--8--8-|
C|--8--8--8--8--8--8--8--8-------------------------|

  GTR I,II
d|--------------------------------------------------|
A|--------------------------------------------------|
F|--------------------------------------------------|
C|--3--5--5--3--3--5--5--3--5---5---5---5---5---5---|
G|--3--5--5--3--3--5--5--3--5---5---5---5---5---5---|
C|--3--5--5--3--3--5--5--3--5---5---5---5---5---5---|
 |                                             
 |GTR IV
d|--------------------------------------------------|
A|--------------------------------------------------|
F|--------------------------------------------------|
C|--------------------------------------------------|
G|------------------------------------Pickslide-----|
C|------------------------------------Pickslide-----|

Outro

  GTR I
d|-------------------------------------------------|
A|-------------------------------------------------|
F|-------------------------------------------------|
C|--8-----------------------3----------------------|
G|--8-----------------------3----------------------|
C|--8-----------------------3----------------------|
 |                                             
 |GTR II
d|-------------------------------------------------|
A|-------------------------------------------------|
F|-------------------------10----------------------|
C|--8----------------------10----------------------|
G|--8-----------------------8----------------------|
C|--8----------------------------------------------|
 |                                             
 |GTR IV
d|-------------------------------------------------|
A|-------------------------------------------------|
F|----------------12b12-10h12~--------------12b12--|
C|-------------------------------------------------|
G|-------------------------------------------------|
C|-------------------------------------------------|

  GTR I,II
d|-------------------------------------------------|
A|-------------------------------------------------|
F|-------------------------------------------------|
C|--5----------------------------------------------|
G|--5----------------------------------------------|
C|--5----------------------------------------------|
 |                                             
 |GTR IV
d|---------------------10--10-------10--10-------10|
A|--------------13p10----10--13p10----10--13p10----|
F|-10br--------------13-----------13-----------13--|
C|------12~----------------------------------------|
G|-------------------------------------------------|
C|-------------------------------------------------|


  GTR I
d|-------------------------------------------------|
A|-------------------------------------------------|
F|-------------------------------------------------|
C|--8-----------------------3----------------------|
G|--8-----------------------3----------------------|
C|--8----------------10-----3----------------------|
 |                                             
 |GTR II
d|-------------------------------------------------|
A|-------------------------------------------------|
F|-------------------------10----------------------|
C|--8----------------------10----------------------|
G|--8-----------------------8----------------------|
C|--8----------------10----------------------------|
 |                                             
 |GTR IV
d|-------------------------------------------------|
A|-13b---------------------------------------------|
F|----------------12b12-10h12~--------------12b12--|
C|-------------------------------------------------|
G|-------------------------------------------------|
C|-------------------------------------------------|

  GTR I,II
d|-------------------------------------------------|
A|-------------------------------------------------|
F|-------------------------------------------------|
C|--5----------------------------------------------|
G|--5----------------------------------------------|
C|--5----------------------------------------------|
 |                                             
 |GTR IV
d|-------------------------------------------------|
A|-------------------------------------------------|
F|-10br--------------------------------------------|
C|----------12~-----------------b------------------|
G|-------------------------------------------------|
C|-------------------------------------------------|


| b  bend
| r  release bend
|trp triplet
|PH. pinch harmonic
|fbk feedback
| .  palm-mute
| /  slide up
| \  slide down
| h  hammer-on
| p  pull-off
| ~  vibrato
|(7) harmonic
| x  Mute note
===============================================================================

            
            
Suggest correction
Creating personal tab
Creating personal tab
You can edit any tab online and save it as your Personal.

You can edit, replace or remove any tab part or add personal notes – all changes will be seen only by you.

Personal tabs can be accessed anytime from any device, even offline.
Learn more »
Give kudos to tab author, rate the tab!
1 2 3 4 5
comments
print report bad tab
guest
You may want to rate the tab now too:
select rating
Wanna post a correction for this tab? Suggest correction