Oops, an error
Loading. Please wait.

Trying Not To Love You Tab

version 1
version 1

Whole song

41,779 views 66 this week
3 commentsread comments
1 2 3 4 5
x 12
add to favorites
launch autoscroll
font size
0
reset
how to read this tab
guitar tuner
Autoscroll
slow
fast
+/-
esc
set tempo
stop
Help us to improve Ultimate-Guitar.com Take our survey!
×
Author
Difficulty
I got a acoustic intro witch im not exactly sure on, but im certain about the electric one:


Guitar 1: acoustic
Guitar 2: electric

[Intro]

Guitar 1
     (Bm)     (A)    (E)
e----------------------------------------|
B--------3--3---3---3--0--0--0--0--------|
G---------4--4---2---2--1--1--1--1-------|
D----------4-------2-----2-----2---------|       (X2)
A--------2------0------2-----2-----------|
E----------------------------------------|

Guitar 2(played after 2nd run through of acoustic intro):

e-----------------------------------------------------------------------------|
B-----------------------------------------------------------------------------|
G-----------------------------------------------------------------------------|
D-------12p11-9-7-9--12p11-----------12p11-9-7-9--12p11-12h14-----12p11-9-7-9-|
A------9------------9-----9-12h14---9------------9-----9---------9------------|
E-----------------------------------------------------------------------------|


[Verse 1]
(Guitar 1 only)
Bm    A      E                      Bm
You call to me, and I fall at your feet
             A             E
How could anyone ask for more
Bm        A    E                        Bm
And our time apart, like knives in my heart
             A            E
How could anyone ask for more


[Pre-Chorus]
(Guitar 2, use power chords)
(Guitar 1, strum but make E's Em's and F#'s F#m's)
         E                    F#
But if there's a pill to help me forget,
      G               A
God knows I haven't found it yet
          E                 G
But I'm dying to, God I'm trying to


[Chorus]
(Guitars 1&2 struming)

                     D                 A
Cause trying not to love you, only goes so far
                  Bm                    G
Trying not to need you, is tearing me apart
                        D                            A
Can't see the silver lining, from down here on the floor
                     Bm                           G
And I just keep on trying, but I don't know what for
                      Em          G
Cause trying not to love you
                        Bm    A    E(Guitar 1 continue strumming Guitar 2:Intro again on "more")
Only makes me love you more
                        Bm    A    E
Only makes me love you more



[Verse 2]
(Guitar 1 only)
Bm         A      E                      Bm
And this kind of pain, only time takes away
                  A                E
That's why it's harder to let you go
Bm          A      E                      Bm
And nothing I can do, without thinking of you
                  A                E
That's why it's harder to let you go


[Pre-Chorus]
(Guitar 2, use power chords)
(Guitar 1, strum but make E's Em's and F#'s F#m's)

         E                    F#
But if there's a pill to help me forget,
      G               A
God knows I haven't found it yet
          E                 G
But I'm dying to, God I'm trying to

[Chorus]
 (Guitars 1&2 struming)
                        D                 A
Cause trying not to love you, only goes so far
                  Bm                    G
Trying not to need you, is tearing me apart
                        D                            A
Can't see the silver lining, from down here on the floor
                     Bm                           G
And I just keep on trying, but I don't know what for
                      Em          G
Cause trying not to love you
                        D     (D continues to the start of bridge)
Only makes me love you more


[Bridge]
(Guitar 1)
                 A                       Em
So I sit here divided, just talking to myself
                         G
Was it something that I did
                    D
Was there somebody else
                         A                            Em
When a voice from behind me, that was fighting back tears
                      G                              Em
Sat right down beside me, and whispered right in my ear
                    G
Tonight I'm dying to tell you


[Finale chorus]
(Guitars 1 only until "apart" then Guitar 2 joins in until end.)
                       D                   A
That trying not to love you, only went so far
                Bm                       G
Trying not to need you, was tearing me apart
                       D                               A
Now I see the silver lining, from what we're fighting for
                         Bm                       G
And if we just keep on trying, we could be much more
                       Em      G
Cause trying not to love you
                           Em      G
Oh, yeah, trying not to love you
                        Bm    A    E
Only makes me love you more
                        Bm    A    E
Only makes me love you more



************************************

h = hammer on
p = pull off

************************************
Suggest correction
comments
print report bad tab
3 comments total.
0 reply
TrashDash 10 Oct 09, 2014 04:43 PM

Bm G
Trying not to need you, is tearing me apart

Au lieu de Bm, je mettrais Em
Try it !

Et aussi un E11 pour faire la jonction.

0 reply
metalz4life 212 Dec 27, 2014 07:36 PM

Acoustic intro/verse:

E7sus2/B Bm11/A E

e-------------0--------|-----------0-------|------------0--------|
B---3-----------3------|--3----------3-----|--0-----------0------|
G-------4---------4----|------4--------4---|-----1----------1----|
D---------4------------|--------4----------|-------2-------------|
A---2-------2----------|--0-------0--------|---------------------|
E----------------------|-------------------|--0-------0----------|

E

e------------0--------|
B--0-----------0------|
G-----1----------1----|
D-------2-------------|
A---------------------|
E--0-------0----------|

0 reply
nickywatkins789 10 Mar 02, 2016 09:02 PM

What tuning is this? Standard? E Flat? Drop D? Drop C?

guest
You may want to rate the tab now too:
select rating
Wanna post a correction for this tab? Suggest correction