Oops, an error
Loading. Please wait.

When We Stand Together Bass Tab

version 1
version 1

Whole song

Interactive

18,344 views 27 this week
1 commentread comment
1 2 3 4 5
excellent!
x 3
add to favorites
launch autoscroll
font size
0
reset
guitar tuner
Autoscroll
slow
fast
+/-
esc
set tempo
stop
Help us to improve Ultimate-Guitar.com Take our survey!
×
Author
Difficulty
Tuning
novice
A# F A# D# G C
INTRO
D#| ------------------------|
A#| ------------------------|
F | ------------------------|
A#| -0--0--0--0--0--0--0--0-|


SONG
D#| ------------------------|
A#| -------------------3----|
F | -------1--1--3--3-----3-|
A#| -0--0-------------------|


PRE-CHORUS
D#| -------------------------|
A#| -------------------------|
F | -------1--1--3--3/15///3-|
A#| -0--0--------------------|


END-CHORUS
D#| -------------------1/5-1/7-|
A#| ---------------------------|
F | -------1--1--3--3----------|
A#| -0--0----------------------|


BRIDGE
D#| -------------------------------------------------------------------------|
A#| ---------------------------------3--------3------------------------------|
F | -1--1--1--3----------3--5--5--5-----3--3-----3---1--1--1--1--3--3/15///0-|
A#| -------------5--5--5-----------------------------------------------------|


INTRO (1x)
SONG (5x)

PRE-CHORUS (1x)
SONG (6x)
END-CHORUS (1x)

SONG (3x)

PRE-CHORUS (1x)
SONG (6x)
BRIDGE (1x)

-nothing- (2x)

SONG (7x)

/ = fast slide
/// = slow slide
Suggest correction
Give kudos to tab author, rate the tab!
1 2 3 4 5
comments
print report bad tab
1 comment total.
0 reply
Flixx16 16 wrote on November 7 2012, 12:05 pm

D#|-----------------------------|
A#|-----------------------3-----|
F |-------1--1--3--3--023---3---|
A#|--0--0-----------------------|

This is the way i play it. I sounds cool.
My friends like it when i play it this way.
The -023- is not played slow, one after another.

I basicly just improvise these kind of parts into the song at different times depending on the vocal part.

guest
You may want to rate the tab now too:
select rating
Wanna post a correction for this tab? Suggest correction