Oops, an error
Loading. Please wait.

Where Do I Hide Bass Tab

version 2
version 2

Whole song

Interactive

1,614 views 3 this week
3 commentsread comments
1 2 3 4 5
x 3
add to favorites
launch autoscroll
font size
0
reset
guitar tuner
Autoscroll
slow
fast
+/-
esc
set tempo
stop
Help us to improve Ultimate-Guitar.com Take our survey!
×
Author
Difficulty
intermediate
If this is not correct, your an idiot.


at the first of the intro no bass

     Intro                   Chorus/Solo
G|-----------|-------------------------------------------|G
D|-----------|-------------------------------------------|D
A|00-00-0----|-2-0h2-0-0-7-5/9-5-2-2--2-0h2-0-0-7-5/9-5-2|A
E|--------/12|-------------------------------------------|E

Pre Verse                        
G|---------------------------------------------|G
D|---0--------0---------------0---------0------|D
A|202-202--202-202-00-0-x--202-202--202--202-5~|A
E|---------------------------------------------|E

Verse
G|-------------------------------------|G  
D|---0--------0--------0--------0------|D  
A|202-202--202-202--202-202--202-202-5~|A 
E|-------------------------------------|E

Lookin For A Scapegoat...
G|----------------------------------------------|G
D|---0----------0----------0----------0---------|D
A|202-202----202-202----202-202----202-202-2/7-5|A
E|-------0000-------0000-------0000-------------|E

Intro                    x1
pre verse                x1
verse                    x1
chorus                   x2
verse                    x1
chorus                   x4
solo                     x8 (pause)
2nd part of verse only   x1
chorus                   x5

Suggest correction
Give kudos to tab author, rate the tab!
1 2 3 4 5
comments
print report bad tab
3 comments total.
0 reply
maxpowweer 618 Feb 27, 2011 09:27 PM

I think the main riff is more like:

G|-------------------------------------------|G
D|-------------------------------------------|D
A|-2-0h2-0-0-7-5/9-7-2-2--2-0h2-0-0-7-5/9-7-2|A
E|-------------------------------------------|E

Other than that good tab dude

+2 reply
maxpowweer 618 Feb 27, 2011 09:31 PM

In fact, better still....
G|-----------------------------------------------|
D|-----------------------------------------------|
A|-2-0h2-0-0-7-5/9-7-5-2-2--2-0h2-0-0-7-5/9-7-5-2|
E|-----------------------------------------------|

0 reply
PieRulesForever 84 Feb 09, 2013 01:05 PM

"If this is not correct, your an idiot"

*you're

guest
You may want to rate the tab now too:
select rating
Wanna post a correction for this tab? Suggest correction