Oops, an error
Loading. Please wait.

Eulogy To Lenny Bruce Tab

by Nico
3,172 views 12 this week
no commentswrite comment
1 2 3 4 5
please rate
add to favorites
launch autoscroll
font size
0
reset
how to read this tab
guitar tuner
Autoscroll
slow
fast
+/-
esc
set tempo
stop
Help us to improve Ultimate-Guitar.com Take our survey!
×
Capo
2nd fret
  		         Nico: Eulogy to Lenny Bruce
			        Chelsea Girls
								Capo on 2nd Fret
			     Tabbed by: Colin Kelly


      Intro                 Part 1
------5---------5------|------------------2---2-----------------2--
------3---------3------|------3----3------0---0------3---3------0--
----0---------0--------|------0----0------0---0------0---0------0--
--4------4--0------4/2-|------2----2-----------------2---2---------
-----------------------|---2------------2----------2----------2----
-----------------------|-0-------0----0-----0----0-----0----0------


-------------------------------------------------------
-----0----------0----------0----------0----------------
---------0----------0----------0-----------0-----------
-------------------------------------------------------
---2----------2----------2----------2------------------
-0-----0----0-----0----0-----0----0------0-------------

              Part 2
------------------------------------------- 
-----3-----------3----------3---------3---- 
-----2-----------2----------2---------2---- 
-----0-----------0----------0---------0---- 
---0---0-------0---0------0---0-----0---0-- 
-2-----------2----------2---------2-------- 

------------2---2----------------2---2---------
-----0------0---0-----3---3------0---0------0--
-----0------0---0-----0---0------0---0------0--
-----2----------------2---2-----------------2--
 ---2-------2-2-2----2---2-------2--2-2----2---
 -0------0---------0----------0----------0-----

              Part 3 
|-----------0h2-------0h2---------------------------- 
|------3--------3---3-----3---3-------3---3----3---3- 
|------2-2--------2---------2---------2-2-2----0---0- 
|----0------------------------------0----------2---2- 
|--------------------------------------------2------- 
|--2-----------------------------2---------0-----0--- 

-----2---2---------------------------|
-----0---0------3----3---------------|
-----0---0------0----0---------------|
----------------2----2---------------|
---2----------2----2-----------------|
-0-----0----0------------------------|



		Part 4 for future reference
-----------------------------------------------------------------
------2---------2----------4-----------5-----------8-------------
----------2---------2-----------4------6----------------10--8-h10
----4---------4----------6-------------7----7---10---11---------- 
--------4---------4-----------6------7----7---------------------- 
--2---------2----------4-----------5----------8------------------
(RepeatEach Chord Repeats Twice.)



                        Part 5
----------------------2---2-----------------2---2---------------------
----------3----3------0---0------3---3------0---0------3---3------0---
----------0----0------0---0------0---0------0---0------0---0------0---
----------2----2-----------------2---2-----------------2---2----2-----
-------2------------2----------2----------2---2-----2----2------------
-8/0-0-------0----0-----0----0-----0----0----------0-----------0------

------------------------------------------------------0h2-------  
-----3-----------3------------3-------3----------3--------3---3-
-----2-----------2------------0-------0----------2-2--------2---  
-----0-----------0------------2-------2--------0----------------
---0---0-------0---0--------2---2---2---2------------0---------- 
-2-----------2------------0-------0----------2------------------   



-----------------------------------------------------------------------------
------3-------3--3-------3-------3--------3-----------3----------3---------3-
------0-------0--0-------0-------0--------2-----------2----------2---------2-
------2-------2--2-------2-------2--------0-----------0----------0---------0-
----2---2---2----------2---2---2---2----0---0-------0---0------0---0-----0--0
--0-------0----------0-------0--------2-----------2----------2---------2----- 
                                      
                                     Play part 4  
        				   |
------------------2---2-------------		----------------------2---2--
------3----3------0---0------3---3--		----------3----3------0---0--
------0----0------0---0------0---0-- 	        ----------0----0------0---0--
------2----2-----------------2---2--	        ----------2----2-------------
---2------------2----------2--------		-------2------------2--------
-0-------0----0-----0----0-----0----		-8/0-0-------0----0-----0---- 

----------------------2---2-- 		     -------------------2---2---
----------3----3------0---0-- 		     -----3----3--------0---0---
----------0----0------0---0--   play intro   -----0----0--------0---0---
----------2----2-------------  		     -----2----2--------2---2---
-------2------------2-------- 		     -------2-----------2---2---
-8/0-0-------0----0-----0---- 		     -8/0-0-------0---0--------- 	Repeat twice
		   
    Part 6
------5---------5---------5---------5-----
------3---------3---------3---------3-----
----0---------0---------0---------0------- 
--4------4--0------4--0------4--0-----4/2-
------------------------------------------
------------------------------------------
play part 1 | play part 2| part 1| Part 4


 Continue Part 2   
  
------5---------5--------------------------2---
------3---------3----------3---3---------0-----
----0---------0------------0---0-------0-------
--4------4--0-----4/2------2---2-----2---------
-------------------------2---2-----2-----------
-----------------------0---------0-------------
		      Fin
Suggest correction new What's this?
You can suggest a correction to this tab. Community and Mods will review your correction and vote to approve or reject it.
comments
We did not receive enough feedback on this tab! Please rate:
print report bad tab
1 2 3 4 5
guest
You may want to rate the tab now too:
select rating
Please do not post tabs as comments. Select "correction" instead!