Oops, an error
Loading. Please wait.

Fairest Of The Seasons Tab

version 1
version 1

Whole song

Interactive

by Nico
23,554 views 54 this week
1 commentread comment
1 2 3 4 5
excellent!
x 7
add to favorites
launch autoscroll
font size
0
reset
how to read this tab
guitar tuner
Tab Pro tools
  • play this tab
  • loop segment
  • change instrument
  • show fretboard
  • metronome
Autoscroll
slow
fast
+/-
esc
set tempo
stop
Contributor
-------------------------------------------------------------------------------
			     Fairest of the Seasons - Nico
-------------------------------------------------------------------------------
Tabbed by: cflat
Email: cflat@earthlink.net

Tuning: e,b,g,d,a,e
Capo: 4th fret to match album

Not sure what the chords are really called. Jackson Browne has some real quirky patterns.


** intro

  D/A				   D/C
e|----------2---------------------|--------------------------------|
B|3---------------3---------3-----|--3-------3-------3-------3-----|
G|------2-------2-------2---------|------2-------2-------2-------2-|
D|----0-------0-------0-------0---|----0-------0-------0-------0---|
A|0-------0-------0-------0-------|3-------3-------3-------3-------|
E|--------------------------------|--------------------------------|

  D/B				   A
e|--------------------------------|--------------------------0-----|
B|--3-------3-------3-------3-----|----3-----------0h2-----3-------|
G|------0-------0-------0-------0-|----2---------------------------|
D|----0-------0-------0-------0---|----2-------2-------2-------0---|
A|2-------2-------2-------2-------|0-------0-------0-------0-------|
E|--------------------------------|--------------------------------|

							Now that it's
  D/F#
e|2-----------------------2-------|----------------2---------------|
B|--------3-----------3-----------|3-----------3-----------3-------|
G|------2-------2---------------2-|------2---------------2-------2-|
D|----0-------0-------0-------0---|----0-------0-------0-------0---|
A|0-------------------------------|--------------------------------|
E|--------2-------2-------2-------|2-------2-------2-------2-------|

** end intro

** start repeat


  time			Now that   the hour hand has landed at the
  now			Now that the canvas falling smaller in my
  smile			Now that    I'm laughing even deeper in-

  D/C				   D/B
e|--------------------------------|--------------------------------|
B|--3-------3-------3-------3-----|--3-------3-------3-------3-----|
G|------2-------2-------2-------2-|------0-------0-------0-------0-|
D|----0-------0-------0-------0---|----0-------0-------0-------0---|
A|3-------3-------3-------3-------|2-------2-------2-------2-------|
E|--------------------------------|--------------------------------|

  end			Now that it's real		Now that the
  mind			Now that it's here		Now that I'm
  side			Now that I see			Now that I

  A				   D/F#
e|--------------------------0-----|2-----------------------2-------|
B|----3-----------0h2-----3-------|--------3-----------3-----------|
G|----2---------------------------|------2-------2---------------2-|
D|----2-------2-------2-------0---|----0-------0-------0-------0---|
A|0-------0-------0-------0-------|0-------------------------------|
E|--------------------------------|--------2-------2-------2-------|

  dreams have given all they had to lend		I want to
  almost  not  so very  far    behind			I want to
  finally found the one thing I denied			It's now I

  Em				   A
e|----0---------------0-----------|----------0---------------------|
B|--------0---------------0-------|2-----2---------2---------------|
G|--------------------------------|--------------2-----------------|
D|----2-------2-------2-------2---|----2-------2-------2-----------|
A|--------------------------------|0-------0-------0---------------|
E|0-------0-------0-------0-------|------------------------0---2---|

  know 			 will I     stay or do I go	And maybe
  know 			 do   I     stay or do I go	And maybe
  know 			ugh do I stay or do I go	And it is

  G				   D		   D/C
e|--------------------------------|2--------------------------0----|
B|--------3-------3-------3-------|3-------------------3---3-------|
G|--------0-------0-------0-------|------------------2---2---------|
D|--------0-------0-------0-------|0-------------------------------|
A|--------------------------------|--------0-------3---------------|
E|3-------3-------3-------3-------|--------------------------------|

  try another time					And do I
  follow another sign					And do I
  finally I decide					That I'll be

  G/B		  G/Bb		   6/4 * extended bar *
e|------------------------0-------|-----0----------0----------0----|
B|--3-------3---------3-------3---|--3-----3----3-----3----3-----3-|
G|------0-------0---------0-------|-----0----------0----------0----|
D|----0-------0-------0-------0---|--0-----0----0-----0----0-----0-|
A|2-------2-------1---------------|1----------1----------1---------|
E|--------------------------------|--------------------------------|

  really have a hand in my forgetting
  really have a song that I can ride on
  leaving in the fairest of the seasons
  
  A				   D/F#
e|--------------------------0-----|----------0-----0h2-------0-----|
B|----3-----------0h2-----3-------|3-------3---------------3-------|
G|----2---------------------------|--------------------------------|
D|----2-------2-------2-------0---|----0-------0-------0-------0---|
A|0-------0-------0-------0-------|--------------------------------|
E|--------------------------------|2-------2-------2-------2-------|

*** 3rd time only for ending ***

e|0h2-------0-----0h2-------------|
B|--------3-------3---------------|
G|----------------2---------------|
D|----0-------0---0---------------|
A|----------------0---------------|
E|2-------2-------2---------------|

*********************************

 		  Now that I've  tried		  Now that I've
		  Now that I 	 can		  Now that it's

  D/F#				  D/C
e|0h2-----------------------------|--------------------------------|
B|--------3-----------3-------3---|--3-------3-------3-------3-----|
G|--------------2-----------------|------2-------2-------2-------2-|
D|----0-------0-------0-------0---|----0-------0-------0-------0---|
A|------------------------0-------|3-------3-------3-------3-------|
E|2-------2-------2---------------|--------------------------------|

  finally found that this is not the way		Now that I
  easy,    ever  easy    all    around			Now that I'm

  D/B				   A
e|--------------------------------|--------------------------0-----|
B|--3-------3-------3-------3-----|----3-----------0h2-----3-------|
G|------0-------0-------0-------0-|----2---------------------------|
D|----0-------0-------0-------0---|----2-------2-------2-------0---|
A|2-------2-------2-------2-------|0-------0-------0-------0-------|
E|--------------------------------|--------------------------------|

  turn			Now that I feel it's time to spend the night	
  here			Now that I'm falling to the sunlights and a

  D/F#				   Em
e|2---------------0h2-------------|3-------------------------------|
B|--------3---------------3-------|----------0---------------0-----|
G|------2-------2-------2-------2-|------0-------0-------0-------0-|
D|----0-------0-------0-------0---|----2-------2-------2-------2---|
A|0-------------------------------|--------------------------------|
E|--------2-------2-------2-------|0-------0-------0-------0-------|

  away			I want to know 			    do I
  song			I want to know			    do I

  A				   G
e|----------0---------------------|--------------------------------|
B|2-----2---------2----------2----|--------3-------3-------3-------|
G|--------------2-------2---------|--------0-------0-------0-------|
D|----2-------2-------2--------0--|--------0-------0-------0-------|
A|0-------0-------0-------0-------|--------------------------------|
E|--------------------------------|3-------3-------3-------3-------|

  stay or do I go	And maybe finally split the rhyme
  stay or do I go	And do I have to do just one

  D		   D/C		   G/B		  G/Bb	
e|2--------------------------0----|------------------------0-------
B|3-------------------3---3-------|--3-------3---------3-------3---
G|------------------2---2---------|------0-------0---------0-------
D|0-------------------------------|----0-------0-------0-------0---
A|--------0-------3---------------|2-------2-------1---------------
E|--------------------------------|--------------------------------

			And do I  really   understand  the under-
			And can I choose again if I should lose the

  G/Bb 6/4 * extended bar *	   A
e|-----0----------0----------0----|--------------------------0-----|
B|--3-----3----3-----3----3-----3-|----3-----------0h2-----3-------|
G|-----0----------0----------0----|----2---------------------------|
D|--0-----0----0-----0----0-----0-|----2-------2-------2-------0---|
A|1----------1----------1---------|0-------0-------0-------0-------|
E|--------------------------------|--------------------------------|

  netting			   Yes and the morning has me
  reason

  D/F#				   Fm#
e|----------0-----0h2-------0-----|----------2---------------------|
B|3-------3---------------3-------|2---------------2----------2----|
G|--------------------------------|------2---------------2---------|
D|----0-------0-------0-------0---|---4---------4-----4----------4-|
A|--------------------------------|--------------------------------|
E|2-------2-------2-------2-------|2-------2-------2-------2-------|

  Looking in your eyes And seeing mine 			  warning

  G				   Bm
e|3-------------------------0-----|--------------------------------|
B|----3---0-------0h2-----3-------|3---------3-----3---------3-----|
G|--------------------------------|------4-------4-------4-------4-|
D|----0-------0-------0-------0---|---4--------4------4--------4---|
A|------------------------0-------|2---------------2---------------|
E|3-------3-------3---------------|--------2---------------2-------|

  me			To read the signs 		(more) care-

  Fm#				   D/F#
e|----------------2---------------|--------2p0-----0h2-------------|
B|2---------2---------------2-----|3-----------3-------3-----------|
G|------2-------2-------2-------2-|---2----------2-------2---------|
D|---4--------4-------4-------4---|-----0--------------------------|
A|--------------------------------|0---------------------------0---|
E|2-------2-------2-------2-------|--------2-------2-------2-------|

  fully

  A				   A/C#
e|--------0-----------------------|-----------0--------------------|
B|----2-------2---3-------3-------|5-------5-------7---------7-----|
G|2-------------------------------|---------------------0----------|
D|--------------------2-------2---|-------------------7---------7--|
A|0---------------0-------0-------|4-------0----0--0-------4-------|
E|--------------------------------|--------------------------------|

						    Now that it's
						    Now that I 

  A				   A
e|--------------------------------|--------------------------------|
B|7\5-------5-----5-------5-------|5-------5-------------5------5--|
G|------0-------0-------0-------0-|--------2-----2-------2---------|
D|---5--------5------5-------5----|----5-------5------5------------|
A|0-------0-------0---------------|0-------0-------0---------0-----|
E|------------------------0-------|--------------------------------|

* repeat *

| /  slide up
| \  slide down
| h  hammer-on
| p  pull-off
| ~  vibrato
| +  harmonic
| x  Mute note
===============================================================================
comments
print report bad tab
1 comment total.
0 reply
gene.no wrote on August 29 2009, 02:02 pm

nice tab

I want to post or [tab]
guest
You may want to rate the tab now too:
select rating
Please do not post tabs as comments. Select "correction" instead!