Oops, an error
Loading. Please wait.

These Days Tab

version 1
version 1

Intro

Whole song

Interactive

by Nico
16,145 views 6 this week
3 commentsread comments
1 2 3 4 5
x 4
add to favorites
launch autoscroll
font size
0
reset
how to read this tab
guitar tuner
Autoscroll
slow
fast
+/-
esc
set tempo
stop
Help us to improve Ultimate-Guitar.com Take our survey!
×
Author
Capo
5th fret
-------------------------------------------------------------------------------
                             These Days - Nico
-------------------------------------------------------------------------------

Tabbed by: Jesse Benedick
Email: Cartguysam@aol.com

Tuning: Standard with a capo on the 5th fret. All finger picking.

e|-----------------------------------------------5---------------------------|
B|-6-------6-------6-------6-------------------------------------------------|
G|-----5-------5-------5-------5-------7---7---7-----------------------------|
D|---7-------7-------7-------7-------8---------------------------------------|
A|-8-----7-------5-----------------------------------------------------------|
E|-----------------------8-------5-6-----6---6-------------------------------|
 Repeat a few times
e|----------5----------------------------------------------------------------|
B|--6---------6--------------------------------------------------------------|
G|------5--------------------------------------------------------------------|
D|----7---7------------------------------------------------------------------|
A|--8------------------------------------------------------------------------|
E|---------------------------------------------------------------------------|
 Opening, then repeat the pattern above

| /  slide up
| \  slide down
| h  hammer-on
| p  pull-off
| ~  vibrato
| +  harmonic
| x  Mute note

===============================================================================
Suggest correction
comments
print report bad tab
3 comments total.
0 reply
the piper 1,413 Sep 10, 2006 12:13 AM

this is poo

0 reply
eastbay36 177 Nov 24, 2006 02:52 PM

my question is what is the point of putting a capo on the 5th fret if you dont play any open notes

0 reply
skateboarder873 10 Jun 06, 2007 09:14 AM

e|-----------------------------------------------0---------------------------|
B|-1-------1-------1-------1-------------------------------------------------|
G|-----0-------0-------0-------0-------2---2---2-----------------------------|
D|---2-------2-------2-------2-------3---------------------------------------|
A|-3-----2-------0-----------------------------------------------------------|
E|-----------------------3-------0-1-----1---1-------------------------------|
Repeat a few times
e|----------0----------------------------------------------------------------|
B|--1---------1--------------------------------------------------------------|
G|------0--------------------------------------------------------------------|
D|----2---2------------------------------------------------------------------|
A|--3------------------------------------------------------------------------|
E|---------------------------------------------------------------------------|

there it is with it all relative to the capo on the 5th fret. When you write tabs with a capo, it's best to go ahead and do that, so it's easier to read.

guest
You may want to rate the tab now too:
select rating
Wanna post a correction for this tab? Suggest correction