Oops, an error
Loading. Please wait.

These Days Tab

version 2
version 2

Whole song

Interactive

by Nico
15,036 views 75 this week
no commentswrite comment
1 2 3 4 5
x 7
add to favorites
launch autoscroll
font size
0
reset
how to read this tab
guitar tuner
Autoscroll
slow
fast
+/-
esc
set tempo
stop
Difficulty
Capo
intermediate
5th fret
Capo 5

[Intro]
e|----------------|----------------|----------------|--------0-------|
B|1---------------|--1-------0-----|----1-----------|----1-----------|
G|------0-------0-|------2-------0-|2-------------2-|--------------2-|
D|----2-------0---|----2-------0---|----3-------3---|----3-------3---|
A|3-------0/2-----|0---------------|----------------|----------------|
E|----------------|--------3-------|1-------1-------|1-------1-------|

e|----------------|----------------|----------------|--------0-------|
B|--1-------------|--1-------0-----|----1-----------|----1-----------|
G|------0-------0-|------2-------0-|2-------------2-|--------------2-|
D|----2-------0---|----2-------0---|----3-------3---|----3-------3---|
A|3-------0/2-----|0---------------|----------------|----------------|
E|----------------|--------3-------|1-------1-------|1-------1-------|

e|--------0-------|--------0-------|
B|----1-----------|----1-----------|
G|--------------2-|--------------2-|
D|----3-------3---|----3-------3---|
A|----------------|----------------|
E|1-------1-------|1-------1-------|

e|----------0-----|----------0-----|----------0-----|----------0-----|
B|1---------------|1---------------|1---------------|1---------------|
G|------0-------0-|------0-------0-|------0-------0-|------0-------0-|
D|----2-------2---|----2-------2---|----2-------2---|----2-------2---|
A|3---------------|3---------------|3---------------|3---------------|
E|--------3-------|--------3-------|--------3-------|--------3-------|

[Verse 1]
e|----------------|----------------|----------------|--------0-------|
B|1---------------|--1-------0-----|----1-----------|----1-----------|
G|------0-------0-|------2-------0-|2-------------2-|--------------2-|
D|----2-------0---|----2-------0---|----3-------3---|----3-------3---|
A|3-------0/2-----|0---------------|----------------|----------------|
E|----------------|--------3-------|1-------1-------|1-------1-------|

e|----------------|----------------|----------------|--------0-------|
B|--1-------------|--1-------0-----|----1-----------|----1-----------|
G|------0-------0-|------2-------0-|2-------------2-|--------------2-|
D|----2-------0---|----2-------0---|----3-------3---|----3-------3---|
A|3-------0/2-----|0---------------|----------------|----------------|
E|----------------|--------3-------|1-------1-------|1-------1-------|

e|----------0-----|----------------|0---------------|0---------------|
B|0---------------|0-----------0---|------------0---|----------0-----|
G|------0-------0-|------0---------|------0---------|------0-------0-|
D|----2-------2---|----2-----------|----2-----------|----2-------2---|
A|----------------|----------------|----------------|----------------|
E|0-------0-------|0-------0-------|0-------0-------|0-------0-------|

e|----------------|--------0-------|--------0-------|--------0-------|
B|----1-----------|----1-----------|----1---------3-|----1-----------|
G|2-------------2-|--------------2-|------------2---|------------2---|
D|----3-------3---|----3-------3---|----3-----------|----3-----------|
A|----------------|----------------|----------------|----------------|
E|1-------1-------|1-------1-------|1-------1-------|1-------1-------|

e|0---------------|0---------------|----------------|----------------|
B|1---------------|1---------------|----0-0-0-0-0-0-|0---0-----------|
G|0---------------|0---------------|----0-0-0-0-0-0-|0---0-----------|
D|2---------------|2---------------|----0-2-2-2-2-2-|0---0-------0---|
A|3---------------|3---------------|----2-2-2-2-2-2-|2---2---0/2-----|
E|----------------|------------2---|3---3-3-3-3-3-3-|3---3-----------|

e|----------------|----------------|----------------|--------0-------|
B|1---------------|--1-------0-----|----1-----------|----1-----------|
G|------0-------0-|------2-------0-|2-------------2-|--------------2-|
D|----2-------0---|----2-------0---|----3-------3---|----3-------3---|
A|3-------0/2-----|0---------------|----------------|----------------|
E|----------------|--------3-------|1-------1-------|1-------1-------|

e|--------0-------|--------0-------|------------0---|----------------|
B|----1-----------|----1-----------|--1-------------|1---------1-----|
G|--------------2-|--------------2-|------2---------|------2-------2-|
D|----3-------3---|----3-------3---|----3-----------|----3-------3---|
A|----------------|----------------|----------------|----------------|
E|1-------1-------|1-------1-------|1-------1-------|1-------1-------|

e|----------0-----|----------0-----|----------0-----|----------0-----|
B|1---------------|1---------------|1---------------|1---------------|
G|------0-------0-|------0-------0-|------0-------0-|------0-------0-|
D|----2-------2---|----2-------2---|----2-------2---|----2-------2---|
A|3---------------|3---------------|3---------------|3---------------|
E|--------3-------|--------3-------|--------3-------|--------3-------|

[Verse 2]
e|----------------|----------------|----------------|--------0-------|
B|1---------------|--1-------0-----|----1-----------|----1-----------|
G|------0-------0-|------2-------0-|2-------------2-|--------------2-|
D|----2-------0---|----2-------0---|----3-------3---|----3-------3---|
A|3-------0/2-----|0---------------|----------------|----------------|
E|----------------|--------3-------|1-------1-------|1-------1-------|

e|----------------|----------------|----------------|--------0-------|
B|--1-------------|--1-------0-----|----1-----------|----1-----------|
G|------0-------0-|------2-------0-|2-------------2-|--------------2-|
D|----2-------0---|----2-------0---|----3-------3---|----3-------3---|
A|3-------0/2-----|0---------------|----------------|----------------|
E|----------------|--------3-------|1-------1-------|1-------1-------|

e|----------0-----|----------------|0---------------|0---------------|
B|0---------------|0-----------0---|------------0---|----------0-----|
G|------0-------0-|------0---------|------0---------|------0-------0-|
D|----2-------2---|----2-----------|----2-----------|----2-------2---|
A|----------------|----------------|----------------|----------------|
E|0-------0-------|0-------0-------|0-------0-------|0-------0-------|

e|----------------|--------0-------|--------0-------|--------0-------|
B|----1-----------|----1-----------|----1---------3-|----1-----------|
G|2-------------2-|--------------2-|------------2---|------------2---|
D|----3-------3---|----3-------3---|----3-----------|----3-----------|
A|----------------|----------------|----------------|----------------|
E|1-------1-------|1-------1-------|1-------1-------|1-------1-------|

e|0---------------|0---------------|----------------|----------------|
B|1---------------|1---------------|----0-0-0-0-0-0-|0---0-----------|
G|0---------------|0---------------|----0-0-0-0-0-0-|0---0-----------|
D|2---------------|2---------------|----0-2-2-2-2-2-|0---0-------0---|
A|3---------------|3---------------|----2-2-2-2-2-2-|2---2---0/2-----|
E|----------------|------------2---|3---3-3-3-3-3-3-|3---3-----------|

e|----------------|----------------|----------------|--------0-------|
B|1---------------|--1-------0-----|----1-----------|----1-----------|
G|------0-------0-|------2-------0-|2-------------2-|--------------2-|
D|----2-------0---|----2-------0---|----3-------3---|----3-------3---|
A|3-------0/2-----|0---------------|----------------|----------------|
E|----------------|--------3-------|1-------1-------|1-------1-------|

e|--------0-------|--------0-------|--------0-------|--------0-------|
B|----1-----------|--1-------------|----1-----------|--1-------------|
G|--------------2-|------2-------2-|--------------2-|------2-------2-|
D|----3-------3---|----3-------3---|----3-------3---|----3-------3---|
A|----------------|----------------|----------------|----------------|
E|1-------1-------|1-------1-------|1-------1-------|1-------1-------|

e|----------0-----|----------0-----|----------0-----|----------0-----|
B|1---------------|1---------------|1---------------|1---------------|
G|------0-------0-|------0-------0-|------0-------0-|------0-------0-|
D|----2-------2---|----2-------2---|----2-------2---|----2-------2---|
A|3---------------|3---------------|3---------------|3---------------|
E|--------3-------|--------3-------|--------3-------|--------3-------|

e|----------0-----|----------0-----|
B|1---------------|1---------------|
G|------0-------0-|------0-------0-|
D|----2-------2---|----2-------2---|
A|3---------------|3---------------|
E|--------3-------|--------3-------|

[Verse 3]
e|----------------|----------------|----------------|----------------|
B|1---------------|--1-------0-----|----1-----------|--1-------1-----|
G|------0-------0-|------2-------0-|2-------------0h|2-----2-------2-|
D|----2-------0---|----2-------0---|----3-------3---|----3-------3---|
A|3-------0/2-----|0---------------|----------------|----------------|
E|----------------|--------3-------|1-------1-------|--------1-------|

e|----------------|----------------|----------------|--------0-------|
B|--1-------------|--1-------0-----|----1-----------|----1-----------|
G|------0-------0-|------2-------0-|2-------------2-|--------------2-|
D|----2-------0---|----2-------0---|----3-------3---|----3-------3---|
A|3-------0/2-----|0---------------|----------------|----------------|
E|----------------|--------3-------|1-------1-------|1-------1-------|

e|----------0-----|----------------|0---------------|0---------------|
B|0---------------|0-----------0---|------------0---|----------0-----|
G|------0-------0-|------0---------|------0---------|------0-------0-|
D|----2-------2---|----2-----------|----2-----------|----2-------2---|
A|----------------|----------------|----------------|----------------|
E|0-------0-------|0-------0-------|0-------0-------|0-------0-------|

e|----------------|--------0-------|--------0-------|--------0-------|
B|----1-----------|----1-----------|----1---------3-|----1-----------|
G|2-------------2-|--------------2-|------------2---|------------2---|
D|----3-------3---|----3-------3---|----3-----------|----3-----------|
A|----------------|----------------|----------------|----------------|
E|1-------1-------|1-------1-------|1-------1-------|1-------1-------|

e|0---------------|0---------------|----------------|----------------|
B|1---------------|1---------------|----0-0-0-0-0-0-|0---0-----------|
G|0---------------|0---------------|----0-0-0-0-0-0-|0---0-----------|
D|2---------------|2---------------|----0-2-2-2-2-2-|0---0-------0---|
A|3---------------|3---------------|----2-2-2-2-2-2-|2---2---0/2-----|
E|----------------|------------2---|3---3-3-3-3-3-3-|3---3-----------|

e|----------------|----------------|----------------|--------0-------|
B|1---------------|--1-------0-----|----1-----------|----1-----------|
G|------0-------0-|------2-------0-|2-------------2-|--------------2-|
D|----2-------0---|----2-------0---|----3-------3---|----3-------3---|
A|3-------0/2-----|0---------------|----------------|----------------|
E|----------------|--------3-------|1-------1-------|1-------1-------|

e|--------0-------|--------0-------|--------0-------|--------0-------|
B|--1-------------|----1-----------|----1-----------|----1-----------|
G|------2-------2-|--------------2-|--------------2-|--------------2-|
D|----3-------3---|----3-------3---|----3-------3---|----3-------3---|
A|----------------|----------------|----------------|----------------|
E|1-------1-------|1-------1-------|1-------1-------|1-------1-------|

e|----------0-----|----------0-----|----------0-----|----------0-----|
B|1---------------|1---------------|1---------------|1---------------|
G|------0-------0-|------0-------0-|------0-------0-|------0-------0-|
D|----2-------2---|----2-------2---|----2-------2---|----2-------2---|
A|3---------------|3---------------|3---------------|3---------------|
E|--------3-------|--------3-------|--------3-------|--------3-------|

e|----------0-----|
B|1---------------|
G|------3-------3-|
D|----2-------2---|
A|3---------------|
E|--------3-------|

[Instrumental]
e|----------------|----------------|----------------|--------0-------|
B|1---------------|----1-----------|----1-----------|----1-----------|
G|------3---------|2-------------0-|2-------------3-|--------------3-|
D|----2------0----|----2-------0---|----3-------2---|----3-------2---|
A|3------0h2------|0---------------|----------------|----------------|
E|----------------|--------3-------|1-------1-------|1-------1-------|

e|----------------|----------------|----------------|----------------|
B|1---------------|1---------------|----1-----------|1p0-------0-----|
G|------0-------0-|------2-------0-|2-------------2-|------2-------2-|
D|----2-------0---|----2-------0---|----3-------3---|----3-------3---|
A|3-------0/2-----|0---------------|----------------|----------------|
E|----------------|--------3-------|1-------1-------|----------------|

e|----------------|----------------|0---------------|0---------------|
B|0h1-------0-----|0h1---------1---|------------1---|----------1-----|
G|------2---------|------2---------|------2---------|------2-------2-|
D|----3-------3---|----3-------3---|----3-------3---|----3-------3---|
A|----------------|----------------|----------------|----------------|
E|----------------|----------------|1-------1-------|1-------1-------|

e|----------0-----|----------0-----|----------0-----|----------------|
B|1---------------|1---------------|1---------------|1---------------|
G|------0-------0-|------0-------0-|------0-------0-|----------------|
D|----2-------2---|----2-------2---|----2-------2---|----2-------2---|
A|3---------------|3---------------|3---------------|3-------3-------|
E|--------3-------|--------3-------|--------3-------|----------------|
  
[Verse 4]
e|----------------|----------------|----------------|----------------|
B|1---------------|--1-------0-----|----1-----------|--1-------1-----|
G|------0-------0-|------2-------0-|2-------------0h|2-----2-------2-|
D|----2-------0---|----2-------0---|----3-------3---|----3-------3---|
A|3-------0/2-----|0---------------|----------------|----------------|
E|----------------|--------3-------|1-------1-------|--------1-------|

e|----------------|----------------|----------------|--------0-------|
B|--1-------------|--1-------0-----|----1-----------|----1-----------|
G|------0-------0-|------2-------0-|2-------------2-|--------------2-|
D|----2-------0---|----2-------0---|----3-------3---|----3-------3---|
A|3-------0/2-----|0---------------|----------------|----------------|
E|----------------|--------3-------|1-------1-------|1-------1-------|

e|----------0-----|----------------|0---------------|0---------------|
B|0---------------|0-----------0---|------------0---|----------0-----|
G|------0-------0-|------0---------|------0---------|------0-------0-|
D|----2-------2---|----2-----------|----2-----------|----2-------2---|
A|----------------|----------------|----------------|----------------|
E|0-------0-------|0-------0-------|0-------0-------|0-------0-------|

e|----------------|--------0-------|--------0-------|--------0-------|
B|----1-----------|----1-----------|----1-----------|--1-------------|
G|2-------------2-|--------------2-|--------------2-|------2-------2-|
D|----3-------3---|----3-------3---|----3-------3---|----3-------3---|
A|----------------|----------------|----------------|----------------|
E|1-------1-------|1-------1-------|1-------1-------|1-------1-------|

e|0---------------|0---------------|----------------|----------------|
B|1---------------|1---------------|----0-0-0-0-0-0-|0---0-----------|
G|0---------------|0---------------|----0-0-0-0-0-0-|0---0-----------|
D|2---------------|2---------------|----0-2-2-2-2-2-|0---0-------0---|
A|3---------------|3---------------|----2-2-2-2-2-2-|2---2---0/2-----|
E|----------------|------------2---|3---3-3-3-3-3-3-|3---3-----------|

e|----------------|----------------|----------------|--------0-------|
B|1---------------|--1-------0-----|----1-----------|----1-----------|
G|------0-------0-|------2-------0-|2-------------2-|--------------2-|
D|----2-------0---|----2-------0---|----3-------3---|----3-------3---|
A|3-------0/2-----|0---------------|----------------|----------------|
E|----------------|--------3-------|1-------1-------|1-------1-------|

e|--------0-------|--------0-------|--------0-------|--------0-------|
B|----1-----------|----1-----------|----1-----------|----1-----------|
G|--------------2-|--------------2-|--------------2-|--------------2-|
D|----3-------3---|----3-------3---|----3-------3---|----3-------3---|
A|----------------|----------------|----------------|----------------|
E|1-------1-------|1-------1-------|1-------1-------|1-------1-------|

e|----------------|----------------|----------------|----------------|
B|1---------------|--1-------0-----|----1-----------|--1-------1-----|
G|------0-------0-|------2-------0-|2-------------0h|2-----2-------2-|
D|----2-------0---|----2-------0---|----3-------3---|----3-------3---|
A|3-------0/2-----|0---------------|----------------|----------------|
E|----------------|--------3-------|1-------1-------|--------1-------|

e|----------------|3---------------|
B|1---------1-----|1---------------|
G|------0---------|0---------------|
D|----2-------2---|2---------------|
A|3-------3-------|3---------------|
E|----------------|----------------|


************************************

| /  Slide up
| h  Hammer-on
| p  Pull-off

************************************
Suggest correction
comments
print report bad tab
guest
You may want to rate the tab now too:
select rating
Wanna post a correction for this tab? Suggest correction