Oops, an error
Loading. Please wait.

One October Song Tab

52 views 3 this week
no commentswrite comment
1 2 3 4 5
3 more votes to show rating
add to favorites
launch autoscroll
font size
0
reset
how to read this tab
guitar tuner
Autoscroll
slow
fast
+/-
esc
set tempo
stop
Help us to improve Ultimate-Guitar.com Take our survey!
×
Author
Difficulty
Tuning
intermediate
D G C F A D
D-Tuning = (D-G-C-F-A-D)


[Intro]

e|-----------3-----------------------------------------------------|
B|-------1---------------0h1-1-------------------------------------|
G|-------0-------0---------------0-------2---------------2---0---0-|
D|-----------------------------------------------------------------|
A|-3---3---3---3-------------------0---0---0---0-------------------|
E|-----------------3---3-------3-------------------1---1---1---1---|


e|-----------3-----------------------------------------------------|
B|-------1---------------0h1-1-------------------------------1-----|
G|-------0-------0---------------0-------2---------------2-------0-|
D|-----------------------------------------------------------------|
A|-3---3---3---3-------------------0---0---0---0---0---0---2---2---|
E|-----------------3---3-------3-----------------------------------|



e|-----------3-----------------------------------------------------|
B|-------1---------------0h1-1-------------------------------------|
G|-------0-------0---------------0-------2---------------2---0---0-|
D|-----------------------------------------------------------------|
A|-3---3---3---3-------------------0---0---0---0-------------------|
E|-----------------3---3-------3-------------------1---1---1---1---|


e|-----------3-----------------------------------------------------|
B|-------1---------------0h1-1-------------------------------1-----|
G|-------0-------0---------------0-------2---------------2-------0-|
D|-----------------------------------------------------------------|
A|-3---3---3---3-------------------0---0---0---0---0---0---2---2---|
E|-----------------3---3-------3-----------------------------------|


[Verse]

You know that thing
That you say you sometimes dream of
e|-----------3-----------------------------------------------------|
B|-------1---------------0h1-1-------------------------------------|
G|-------0-------0---------------0-------2---------------2---0---0-|
D|-----------------------------------------------------------------|
A|-3---3---3---3-------------------0---0---0---0-------------------|
E|-----------------3---3-------3-------------------1---1---1---1---|

Well I think it's happening to me
e|-----------3-----------------------------------------------------|
B|-------1---------------0h1-1-------------------------------1-----|
G|-------0-------0---------------0-------2---------------2-------0-|
D|-----------------------------------------------------------------|
A|-3---3---3---3-------------------0---0---0---0---0---0---2---2---|
E|-----------------3---3-------3-----------------------------------|


You know they say
That time will take a hold you
e|-----------3-----------------------------------------------------|
B|-------1---------------0h1-1-------------------------------------|
G|-------0-------0---------------0-------2---------------2---0---0-|
D|-----------------------------------------------------------------|
A|-3---3---3---3-------------------0---0---0---0-------------------|
E|-----------------3---3-------3-------------------1---1---1---1---|

Well
You kill the voice or it kills you
e|-----------3-----------------------------------------------------|
B|-------1---------------0h1-1-------------------------------1-----|
G|-------0-------0---------------0-------2---------------2-------0-|
D|-----------------------------------------------------------------|
A|-3---3---3---3-------------------0---0---0---0---0---0---2---2---|
E|-----------------3---3-------3-----------------------------------|


[Chorus]

Oh no
You shouldn't really speak about it
e|---------------------------3---------------3---------------3-----|
B|-----------------------1---------------1---------------1---------|
G|-------2---2---2---2-----------2---2-----------2---2-----------2-|
D|-3---3---3---3---3---3---3---3---3---3---3---3---3---3---3---3---|
A|-----------------------------------------------------------------|
E|-----------------------------------------------------------------|

e|---------------------------3-------------------------------3-----|
B|-----------------------1-------------------------------1---------|
G|-------0---0---0---0-----------0-------0---0---0---0-----------0-|
D|-----------------------------------------------------------------|
A|-3---3---3---3---3---3---3---3---2---2---2---2---2---2---2---2---|
E|-----------------------------------------------------------------|

Oh no
You shouldn't really speak about it
e|---------------------------3---------------3---------------3-----|
B|-----------------------1---------------1---------------1---------|
G|-------2---2---2---2-----------2---2-----------2---2-----------2-|
D|-3---3---3---3---3---3---3---3---3---3---3---3---3---3---3---3---|
A|-----------------------------------------------------------------|
E|-----------------------------------------------------------------|

e|---------------------------3---------------3---------------3-----|
B|-----------------------1---------------1---------------1---------|
G|-------0---0---0---0-----------0---0-----------0---0-----------0-|
D|-----------------------------------------------------------------|
A|-3---3---3---3---3---3---3---3---2---2---2---2---2---2---2---2---|
E|-----------------------------------------------------------------|


[Verse2]

And you look thin
Well the drugs will make you thinner still
e|-----------3-----------------------------------------------------|
B|-------1---------------0h1-1-------------------------------------|
G|-------0-------0---------------0-------2---------------2---0---0-|
D|-----------------------------------------------------------------|
A|-3---3---3---3-------------------0---0---0---0-------------------|
E|-----------------3---3-------3-------------------1---1---1---1---|

The sort of thing you'd never see


e|-----------3-----------------------------------------------------|
B|-------1---------------0h1-1-------------------------------1-----|
G|-------0-------0---------------0-------2---------------2-------0-|
D|-----------------------------------------------------------------|
A|-3---3---3---3-------------------0---0---0---0---0---0---2---2---|
E|-----------------3---3-------3-----------------------------------|

Look up and up and up above now
e|-----------3-----------------------------------------------------|
B|-------1---------------0h1-1-------------------------------------|
G|-------0-------0---------------0-------2---------------2---0---0-|
D|-----------------------------------------------------------------|
A|-3---3---3---3-------------------0---0---0---0-------------------|
E|-----------------3---3-------3-------------------1---1---1---1---|

And count your lucky stars
e|-----------3-----------------------------------------------------|
B|-------1---------------0h1-1-------------------------------1-----|
G|-------0-------0---------------0-------2---------------2-------0-|
D|-----------------------------------------------------------------|
A|-3---3---3---3-------------------0---0---0---0---0---0---2---2---|
E|-----------------3---3-------3-----------------------------------|


[Chorus]

But oh no
You shouldn't really speak about it
e|---------------------------3---------------3---------------3-----|
B|-----------------------1---------------1---------------1---------|
G|-------2---2---2---2-----------2---2-----------2---2-----------2-|
D|-3---3---3---3---3---3---3---3---3---3---3---3---3---3---3---3---|
A|-----------------------------------------------------------------|
E|-----------------------------------------------------------------|

e|---------------------------3---------------3---------------3-----|
B|-----------------------1---------------1---------------1---------|
G|-------0---0---0---0-----------0---0-----------0---0-----------0-|
D|-----------------------------------------------------------------|
A|-3---3---3---3---3---3---3---3---2---2---2---2---2---2---2---2---|
E|-----------------------------------------------------------------|

Oh no
You shouldn't really speak about it

e|---------------------------3---------------3---------------3-----|
B|-----------------------1---------------1---------------1---------|
G|-------2---2---2---2-----------2---2-----------2---2-----------2-|
D|-3---3---3---3---3---3---3---3---3---3---3---3---3---3---3---3---|
A|-----------------------------------------------------------------|
E|-----------------------------------------------------------------|

e|---------------------------3-------------------3-----------3-----|
B|-----------------------1-------------------1-----------1---------|
G|-------0---0---0---0-----------0-------0-----------0-----------0-|
D|-----------------------------------------------------------------|
A|-3---3---3---3---3---3---3---3---2---2---2---2---2---2---2---2---|
E|-----------------------------------------------------------------|


[Instrumental]

e|-----------3-----------------------------------------------------|
B|-------1---------------0h1-1-------------------------------------|
G|-------0-------0---------------0-------2---------------2---0---0-|
D|-----------------------------------------------------------------|
A|-3---3---3---3-------------------0---0---0---0-------------------|
E|-----------------3---3-------3-------------------1---1---1---1---|


e|-----------3-----------------------------------------------------|
B|-------1---------------0h1-1-------------------------------1-----|
G|-------0-------0---------------0-------2---------------2-------0-|
D|-----------------------------------------------------------------|
A|-3---3---3---3-------------------0---0---0---0---0---0---2---2---|
E|-----------------3---3-------3-----------------------------------|


[Outro]

Cause you know that thing       
That you say you sometimes dream of
e|-----------3-----------------------------------------------------|
B|-------1---------------0h1-1-------------------------------------|
G|-------0-------0---------------0-------2---------------2---0---0-|
D|-----------------------------------------------------------------|
A|-3---3---3---3-------------------0---0---0---0-------------------|
E|-----------------3---3-------3-------------------1---1---1---1---|

Well I think it's happening to me
e|-----------3-----------------------------------------------------|
B|-------1---------------0h1-1-------------------------------1-----|
G|-------0-------0---------------0-------2---------------2-------0-|
D|-----------------------------------------------------------------|
A|-3---3---3---3-------------------0---0---0---0---0---0---2---2---|
E|-----------------3---3-------3-----------------------------------|



e|------------------------x----------------------------------------|
B|-----------1-----1h3-3--1----------------------------------------|
G|-------0-------0-0------0----------------------------------------|
D|------------------------2----------------------------------------|
A|-3---3---3---3---3------3----------------------------------------|
E|------------------------x----------------------------------------|

/h hammer-on
Suggest correction
Give kudos to tab author, rate the tab!
1 2 3 4 5
comments
print report bad tab
guest
You may want to rate the tab now too:
select rating
Wanna post a correction for this tab? Suggest correction