Oops, an error
Loading. Please wait.

Niwaka Ame Nimo Makezu tab

version 1
version 1

Whole song

2,314 views 30 this week
no commentswrite comment
1 2 3 4 5
3 more votes to show rating
add to favorites
×
Save as Personal and add changes to this tab that will be seen only by you. Learn more ›
×
You can save this tab as Personal to edit and correct it or add notes. All changes will be seen only by you. Learn more »
launch autoscroll
font size
0
reset
how to read this tab
guitar tuner
edit
Autoscroll
slow
fast
+/-
esc
set tempo
stop
This is my first tab :P.Be mindful that this tab is not fully complete and I know I probably should've 
completed the whole tab before releasing it and sorry if this annoys anyone. I just got excited that this is 
one of the only near full song tabs of this song.I've managed to tab 50% of the song through hours of looking 
at covers and seeing how they do it and I've adjusted it to be in Standard Tuning. Links to the cover I got 
most of this from is at the bottom. Please give feedback, it means a lot. Enjoy

Tuning: Standard EADGBE


[Intro]
   [       x2        ]                         [       x2        ]
e|--------------------------------------------------------------------------------------------------|
B|--11--9-------------11--9---------------------11--9-------------11--9-----------------------------|
G|---------10--8-------------10--8--10--10--10---------10--8-------------10--8----------------------|
D|----------------11b-----------------------------------------11b---------------11--------------18--|
A|----------------------------------------------------------------------------------13--16--20------|
E|--------------------------------------------------------------------------------------------------|

[Verse]

e|---------------------------------------------------------------------------|
B|---------------------------------------------------------------------------|
G|---------------------------------------------------------------------------|
D|---------------------------------------------------------------------------|
A|---------------------------------------------------------------------------|
E|---------------------------------------------------------------------------|
                            This part is not very accurate
               [                              x2                                       ]
e|--x--x--x-----9--8--------------------------------------------------------------------
B|--x--x--x-----------9--------------------9--------------------------------------------
G|--x--x--x--------------10--8--10--8--10-----10--8--10--8--10--8--10--8--10--8--10--8--
D|--x--x--x--8--------------------------------------------------------------------------
A|--x--x--x--8--------------------------------------------------------------------------
E|--x--x--x--6--------------------------------------------------------------------------


[Chorus]
                                                      [MISSING]
e|-9-9-9-9---11-11--16--16---8-8-8-8--9-9--13-13-------------------------------|
B|-x-x-x-x---x--x---x---x----x-x-x-x--x-x--x--x-------------------------------|
G|-6-6-6-6---8--8---13--13---5-5-5-5--6-6--10-10----------------------------------|
D|---------------------------------------------------------------------------|
A|---------------------------------------------------------------------------|
E|---------------------------------------------------------------------------|

e|--9-9-9-9--11-11--16-16--8-8-8-8--9---11---13--------------------------------------------------|
B|--x-x-x-x---x--x---x--x--x-x-x-x--x----x----x-----------------------------------------|
G|--6-6-6-6---8--8--13-13--5-5-5-5--6----8---10--------------------------------------------------|
D|---------------------------------------------------------------------------|
A|---------------------------------------------------------------------------|
E|---------------------------------------------------------------------------|


[Outro]

   [       x2        ]                         [       x2        ]
e|--------------------------------------------------------------------------------------------------|
B|--11--9-------------11--9---------------------11--9-------------11--9-----------------------------|
G|---------10--8-------------10--8--10--10--10---------10--8-------------10--8----------------------|
D|----------------11b-----------------------------------------11b---------------11--------------18--|
A|----------------------------------------------------------------------------------13--16--20------|
E|--------------------------------------------------------------------------------------------------|


Guitar Cover: https://www.youtube.com/watch?v=aDEq5010zgE
************************************

| x   Dead note
| g   Grace note
| (n) Ghost note
| h   Hammer-on
| p   Pull-off
| r   Release
| >   Accented note
| t   Tapping
| b   Bend
| br  Bend release
| pb  Pre-bend
| pbr Pre-bend release
| /   Slide up
| \   Slide down
| ~   Vibrato
| s   Slap
| P   Pop
| PM  Palm mute
| TR  Trill
| N   Tremolo

************************************

            
            
Suggest correction
Creating personal tab
Creating personal tab
You can edit any tab online and save it as your Personal.

You can edit, replace or remove any tab part or add personal notes – all changes will be seen only by you.

Personal tabs can be accessed anytime from any device, even offline.
Learn more »
Give kudos to tab author, rate the tab!
1 2 3 4 5
comments
print report bad tab
guest
You may want to rate the tab now too:
select rating
Wanna post a correction for this tab? Suggest correction