Oops, an error
Loading. Please wait.

Beast Tab

version 1
version 1

Acoustic

Whole song

Interactive

Video

22,230 views 33 this week
1 commentread comment
1 2 3 4 5
accurate
x 5
add to favorites
launch autoscroll
font size
0
reset
how to read this tab
guitar tuner
Autoscroll
slow
fast
+/-
esc
set tempo
stop
Help us to improve Ultimate-Guitar.com Take our survey!
×
Contributor
-------------------------------------------------------------------------------
                            BEAST(Acoustic) – Nico Vega
-------------------------------------------------------------------------------
Tabbed by:jointhedarkside       
Email:

Tuning:Standard

so this is not the whole song just what i could make out being a total transcribe
noob. here is a link to the performance
http://www.youtube.com/watch?v=PFDFiD3iJck&NR=1
maybe someone could help out an complete or correcting the existing tab.




e|---------------------------------------------------------------------------|
B|---------------------------------------------------------------------------|
G|----7-7--5-7--5---5h7p5-----------7-7--5-7-5----~2-------------------------|
D|------------------------~7-------------------------------------------------|
A|-0--------------------------0----------------------------------------------|
E|---------------------------------------------------------------------------|

e|---------------------------------------------------------------------------|
B|---------------------------------------------------------------------------|
G|---7-7---5-7--5---5h7p5-----------5-----------5----------------------------|
D|------------------------~7---5-7-----~7---5-7---~7-------------------------|
A|-0-------------------------------------------------------------------------|
E|---------------------------------------------------------------------------|



| /  slide up
| \  slide down
| h  hammer-on
| p  pull-off
| ~  vibrato
| +  harmonic
| x  Mute note
===============================================================================
comments
print report bad tab
1 comment total.
0 reply
simen.bruoy 48 wrote on December 31 2014, 07:31 pm

The last 2 on the E string can also be playd as 7 on the D string, so you dont have to move your hand.
Original:
e|---------------------------------------------------------------------------|
B|---------------------------------------------------------------------------|
G|----7-7--5-7--5---5h7p5-----------7-7--5-7-5----~2-------------------------|
D|------------------------~7-------------------------------------------------|
A|-0--------------------------0----------------------------------------------|
E|---------------------------------------------------------------------------|

Optional:
e|---------------------------------------------------------------------------|
B|---------------------------------------------------------------------------|
G|----7-7--5-7--5---5h7p5-----------7-7--5-7-5-------------------------------|
D|------------------------~7----------------------7-------------------------|
A|-0--------------------------0----------------------------------------------|
E|---------------------------------------------------------------------------|

I want to post or [tab]
guest
You may want to rate the tab now too:
select rating
Please do not post tabs as comments. Select "correction" instead!