Oops, an error
Loading. Please wait.

Beast Tab

version 1
version 1

Whole song

Interactive

44,895 views 84 this week
5 commentsread comments
1 2 3 4 5
x 22
add to favorites
launch autoscroll
font size
0
reset
how to read this tab
guitar tuner
Autoscroll
slow
fast
+/-
esc
set tempo
stop
Help us to improve Ultimate-Guitar.com Take our survey!
×
Author
Beast by Nico Vega
from the album Nico Vega

Standard Tuning

[MAIN RIFF]
e|--------------------------------------------------------------------------|
B|--------------------------------------------------------------------------|
G|-2---7-7--5-7--7p5-7p5-------------7-7--5-7-7p5----2~(p0)-----------------|
D|-2-----------------------7~-----------------------------------------------|
A|-0---------------------------0--------------------------------------------|
E|--------------------------------------------------------------------------|

e|--------------------------------------------------------------------------|
B|--------------------------------------------------------------------------|
G|-2---7-7---5-7--7p5-7p5-----------5-----------5---------------------------|
D|-2------------------------7---5-7-----7---5-7---7~------------------------|
A|-0------------------------------------------------------------------------|
E|--------------------------------------------------------------------------|

[BRIDGE]
e|------------------------------------------------|
B|------------------------------------------------|
G|------------------------------------------------|
D|------------------5-------------------7---------|
A|--7p5-7p5-7p5--3--5---7p5-7p5-7p5--3--7---------|
E|------------------3-------------------5---------|


************************************

| p  Pull-off
| ~  Vibrato

************************************

Any corrections please comment
Thanks
Suggest correction
comments
print report bad tab
5 comments total. Showing first comments.
0 reply
LD1 67 Mar 28, 2013 04:36 PM

Great tab but it dosn't feel completed. I think this guy got it really good, I herd his chorus riff in a bioshock infinite traler.
http://www.youtube.com/watch?v=8c1jgQe1N9A

0 reply
iSuckAtGuitar14 10 Jun 04, 2013 09:19 PM

E--------------------------------------------------
B--3-3p1--3-3-3p1---3-3p1--3-3-3p1---1-----1h3p1---
G----------------2----------------2h0-2p0h2-----2--
D--------------------------------------------------
A--------------------------------------------------
E--------------------------------------------------
_I feel as if this is more accurate and easier.
if your listening to it with the vocals muted.

+1 reply
iSuckAtGuitar14 10 Jun 04, 2013 09:26 PM

Forgot To add a note and corrected it.
E--------------------------------------------------
B--3-3p1--3-3-3p1---3-3p1--3-3-3p1-----1----1h3p1--
G----------------2----------------2-0h2-2p0h2----2-
D--------------------------------------------------
A--------------------------------------------------
E--------------------------------------------------
_I feel as if this is more accurate and easier.
if your listening to it with the vocals muted.

guest
You may want to rate the tab now too:
select rating
Wanna post a correction for this tab? Suggest correction