Oops, an error
Loading. Please wait.

Fury Oh Fury Bass Tab

2,235 views 1 this week
2 commentsread comments
1 2 3 4 5
1 last vote to show rating
add to favorites
launch autoscroll
font size
0
reset
guitar tuner
Autoscroll
slow
fast
+/-
esc
set tempo
stop
Help us to improve Ultimate-Guitar.com Take our survey!
×
Difficulty
intermediate
Song: Fury Oh Fury
Artist: Nico Vega
Tabbed by: APinchOfSanity


Comments: This is a pretty easy song, however it is very heavily distorted on
both Main Guitar and the Bass so apologies if you feel there are mistakes

Standard tuning: E,A,D,G

  Verse 1 x4

G|---------------9-9|-----------7-7-----------5-5-|---------------------|
D|------------------|-----------------------------|---------------------|
A|--------7-7--7----|--x-5-5--5------x-3-3--3-----|-x-3-3--x-5-5--x-7-7-|
E|------------------|-----------------------------|---------------------|

  Chorus 1 x4
                           First 3 runs
G|------------------------|-------------------|
D|------------------------|-------------------|
A|-7-7-----5-5-----3-3----|-2-2--x-5-5--x-7-7-|
E|------------------------|-------------------|

                           Last run
                         G|---------------|
                         D|---------------|
                         A|-2-2--x-2-2--x-|
                         E|---------------|

  Post-Chorus 1

G|----------------------|-------------|
D|----------------------|-------------|
A|-7-----5h7p5-3-2--x-2-|-x-x--x-x-x--|
E|----------------------|-------------|

  Verse 2 x4

G|---------------9-9|-----------7-7-----------5-5-|---------------------|
D|------------------|-----------------------------|---------------------|
A|--------7-7--7----|--x-5-5--5------x-3-3--3-----|-x-3-3--x-5-5--x-7-7-|
E|------------------|-----------------------------|---------------------|

  Chorus 2 x4
                           First 3 runs
G|------------------------|-------------------|
D|------------------------|-------------------|
A|-7-7-----5-5-----3-3----|-2-2--x-5-5--x-7-7-|
E|------------------------|-------------------|

                           Last run
                         G|---------------|
                         D|---------------|
                         A|-2-2--x-2-2--x-|
                         E|---------------|

  Bridge
G|-------|
D|-------|
A|-------|
E|-------|

  Chorus 3 x4
                           First 3 runs
G|----/14|------------------------|-------------------|
D|-------|------------------------|-------------------|
A|-------|-7-7-----5-5-----3-3----|-2-2--x-5-5--x-7-7-|
E|-------|------------------------|-------------------|

                                   Last run
                                 G|---------------|
                                 D|---------------|
                                 A|-2-2--x-2-2--x-|
                                 E|---------------|

  Outro 1 x10

  First 9 runs

G|--------------------------|-------------------|
D|--------------------------|-------------------|
A|-7-7-----10-10-----3-3----|-2-2--x-5-5--x-7-7-|
E|--------------------------|-------------------|

  Last run

G|---------------------------|
D|---------------------------|
A|-7-7-----10-10-----3-3\----|
E|---------------------------|




Legend:

x  - Muted note
h  - Hammer onto
p  - Pull off of
/  - Slide into
\  - Slide off of
Suggest correction
Give kudos to tab author, rate the tab!
1 2 3 4 5
comments
print report bad tab
2 comments total.
0 reply
amancioleroux 30 Jul 03, 2014 02:50 PM

Verse
G-------------------77-7----22---------------------------------------
D---------77-7-------------------------------------------------------
A----77-7------55-5-----33-3---33-x-55-x-----------------------------
E--------------------------------------------------------------------

0 reply
amancioleroux 30 Jul 14, 2014 02:02 PM

Actually, it's this
G-------------------77-7----22-2----22-2---------------------------
D---------77-7-----------------------------------------------------
A----77-7------55-5-----33-3----33-3-------------------------------
E------------------------------------------------------------------

guest
You may want to rate the tab now too:
select rating
Wanna post a correction for this tab? Suggest correction