Oops, an error
Loading. Please wait.

Am I Wrong Chords

version 4
version 4
10,771 views 27 this week
no commentswrite comment
1 2 3 4 5
x 20
add to favorites
launch autoscroll
font size
0
reset
transpose
0
reset
display chords
guitar tuner
Autoscroll
slow
fast
+/-
esc
set tempo
stop
Help us to improve Ultimate-Guitar.com Take our survey!
×
Author
Difficulty
Capo
novice
3rd fret
Capo on three  Intro
e  ----------------------------------------------------------------------------|
B|-------------------------------------3--------------0--3---------------------|
G|------------2--------2-------------2-------------0---------------------------|
D|----------2----------3-----------0------------0------------------------------|
A|--------0----------3---------------------------------------------------------|
E|-----------------1-------------------------3---------------------------------|

         Am        F              Dm         G


alternatively you can use this F if you find it easier and replace  the above F with it
e  --------------------------1---------------------------------------------|
B|---------------------------1---------------------------------------------|
G|-------------------------2-----------------------------------------------|
D|-----------------------3-------------------------------------------------|
A|-------------------------------------------------------------------------|
E|-------------------------------------------------------------------------|
                         F

This version is designed for beginners or anyone who does'nt want to do the barchords.
The chords are those featured in version 1
Enjoy and rate and comment!!


INTRO Am F Dm G Am F F G x2

Am F           Dm              G            Am F G 
Am I wrong for thinking out the box from where I stay?

Am F           Dm             G            Am F G
Am I wrong for saying that I choose another way?

         Am                F             Dm  G
I ain't trying to do what everybody else doing

              Am                         F G 
Just cause everybody doing what they all do

     Am         F         Dm            G
If one thing I know, I'll fall but I'll grow

     Am                F                G 
I'm walking down this road of mine, this road that I call home


[CHORUS] 

        Am F
So am I wrong?

       Dm         G        Am             F G 
For thinking that we could be something for real?

       Am F
So am I wrong?

        Dm      G         Am F G 
For trying to reach the things that I can't see?


                       Am F Dm G
But that's just how I feel,
 
                  Am F G 
That's just how I feel
                  
                  Am F
That's just how I feel

  Dm                   G               Am F G 
Trying to reach the things that I can't see
Suggest correction
comments
print report bad tab
guest
You may want to rate the tab now too:
select rating
Wanna post a correction for this tab? Suggest correction