Oops, an error
Loading. Please wait.

Am I Wrong chords

version 6
version 6

Whole song

Video

3,635 views 45 this week
no commentswrite comment
1 2 3 4 5
x 3
add to favorites
×
Save as Personal and add changes to this tab that will be seen only by you. Learn more ›
×
You can save this tab as Personal to edit and correct it or add notes. All changes will be seen only by you. Learn more »
launch autoscroll
font size
0
reset
transpose
0
reset
display chords
guitar tuner
edit
Autoscroll
slow
fast
+/-
esc
set tempo
stop
Strumming
There is no strumming pattern for this song yet. and get +5 IQ
          Capo: 1   

   
d|---------------------0-------------------------------------------------|   
B|---------------------0-------------------------------------------------|   
G|---------------------0--------h9----------------------------h9---------|   
D|---------h9----------0-----h9------------h7--t11/14------h9------------|   
A|-----h9---------h5---5--h7------------h7-------------h7----------------|   
E|--h7---------h3------3------------h5-----------------------------------|   



d|---------0------0------------------------------------------------------|   
B|---------0------0------------------------------------------------------|   
G|---------0------0------------------------------------------------------|   
D|---------0------0---h5--------h7--t11/14-------------------------------|   
A|-----h5--5------0h5--------h7------------------------------------------|   
E|--h3-----3--h3--3-------h5---------------------------------------------|

   

Intro: Bm  G  Em  A  Bm  G   A  2x     

Bm      G      Em              A            Bm G  A     
Am I wrong for thinking out the box from where I stay?     
Bm     G       Em             A            Bm G  A     
Am I wrong for saying that I choose another way?     
         Bm                G             Em  A     
I ain't trying to do what everybody else doing     
              Bm                         G   A     
Just cause everybody doing what they all do     
     Bm         G         Em            A     
If one thing I know, I'll fall but I'll grow     
     Bm                G                Em               A     
I'm walking down this road of mine, this road that I call home     


     

        Bm G     
So am I wrong?     
Em                A                       Bm  G   A   
For thinking that we could be something for real?     
       Bm G     
So am I wrong?     
Em             A                       Bm    G   A   
For trying to reach the things that I can't see?    

                       Bm G Em A     
But that's just how I feel,     
                  Bm G  A     
That's just how I feel     
                  Bm G     
That's just how I feel     
  Em                   A               Bm G  A     
Trying to reach the things that I can't see   

   

  (Bm  G  Em  A  Bm  G  {A})    
Am I tripping for having a vision?   
My prediction: I'ma be on the top of the world   
Walk your walk and don't look back   
Always do what you decide   
Don't let them control your life, that's just how I feel   
Fight for yours and don't let go   
Don't let them compare you, no   
Don't worry, you're not alone, that's just how we feel   



     
        Bm G     
So am I wrong? (Am I wrong?)     
Em                A                       Bm  G   A   
For thinking that we could be something for real? (Oh yeah yeah yeah)    
       Bm G     
So am I wrong?     
Em             A                       Bm    G   A   
For trying to reach the things that I can't see? (Oh yeah yeah yeah)   

                       Bm G Em A     
But that's just how I feel,     
                  Bm G  A     
That's just how I feel     
                  Bm G     
That's just how I feel     
  Em                   A               Bm G  A     
Trying to reach the things that I can't see   

   

   (Bm  G  Em  A  Bm  G  {A})   
If you tell me I'm wrong, wrong   
I don't wanna be right, right   
If you tell me I'm wrong, wrong   
I don't wanna be right   
If you tell me I'm wrong, wrong   
I don't wanna be right, right   
If you tell me I'm wrong, wrong   
I don't wanna be right   


Solo: Capo: 8    
d|---2-0----------2--0-----------2--0------------2--0-----------2--------|   
B|--------0--0----------0--0----0-----0-0-------0------0--0----0---------|   
G|----------------0------------0-----------2---4--------------5----------|   
D|---0------------4------------------------2-----------------------------|   
A|-----------------------------------------------------------------------|   
E|-0------------0-------------0---------------0--------------0-----------|   



d|-0-----------2--0------------------------------------------------------|   
B|---0--0-----0-----0--0--3----------------------------------------------|   
G|-----------6------------2----------------------------------------------|   
D|-----------------------------------------------------------------------|   
A|-----------------------------------------------------------------------|   
E|---------0-------------------------------------------------------------| 

  

Capo: 1   

   (Bm  G  Em  A  Bm  G  {A})    
Am I wrong?   
For thinking that we could be something for real?   
Now am I wrong?   
For trying to reach the things that I can't see?   
But that's just how I feel   
That's just how I feel   
That's just how I feel   
Trying to reach the things that I can't see   


     
        Bm G     
So am I wrong? (Am I wrong?)     
Em                A                       Bm  G   A   
For thinking that we could be something for real? (Oh yeah yeah yeah)    
       Bm G     
So am I wrong?     
Em             A                       Bm    G   A   
For trying to reach the things that I can't see? (Oh yeah yeah yeah)   

                       Bm G Em A     
But that's just how I feel,     
                  Bm G  A     
That's just how I feel     
                  Bm G     
That's just how I feel     
  Em                   A               Bm G  A     
Trying to reach the things that I can't see   

-Jass Sarang

            
            
Suggest correction
Creating personal tab
Creating personal tab
You can edit any tab online and save it as your Personal.

You can edit, replace or remove any tab part or add personal notes – all changes will be seen only by you.

Personal tabs can be accessed anytime from any device, even offline.
Learn more »
Give kudos to tab author, rate the tab!
1 2 3 4 5
comments
print report bad tab
guest
You may want to rate the tab now too:
select rating
Wanna post a correction for this tab? Suggest correction