Oops, an error
Loading. Please wait.

Am I Wrong chords

version 7
version 7

Whole song

Video

841 views 6 this week
no commentswrite comment
1 2 3 4 5
1 last vote to show rating
add to favorites
×
Save as Personal and add changes to this tab that will be seen only by you. Learn more ›
×
You can save this tab as Personal to edit and correct it or add notes. All changes will be seen only by you. Learn more »
launch autoscroll
font size
0
reset
transpose
0
reset
display chords
guitar tuner
edit
Autoscroll
slow
fast
+/-
esc
set tempo
stop
Author
Difficulty
About this tab version
Full song with chords and indication of the fingerpicking patterns used throughout. Was this info helpful? Yes No
Strumming Is this strumming pattern correct? Yes No
Timing of Chord Changes 124 bpm
1
&
2
&
3
&
4
&
Listen
Here are the two main patterns used in this song, with two slight variations: 

Pattern 1 (P1)
   Cm      Ab          Fm     Bb          Cm      Ab          Ab    Bb
e|-------------------|------------------|-------------------|-----------------|
B|-------------------|----------------6-|-------------------|-4-------------6-|
G|-------------5-----|-----10\------7---|-------------5-----|-----5/7-----7---|
D|------10\6---6-----|---10-------8-----|------10\6---6-----|-----6-----8-----|
A|---10------6-------|-8--------8-------|---10------6-------|---6-----8-------|
E|-8-------4---------|--------6---------|-8-------4---------|-4-----6---------|
   * ^  *  ^ * ^ * ^   * ^ *  ^ * ^ * ^   * ^  *  ^ * ^ * ^   * ^ * ^ * ^ * ^

Pattern 1A (P1A)

   Cm      Ab          Fm     Bb          Cm      Ab          Ab    Bb
e|-8-----------------|-8----------------|-8-----------------|-----------------|
B|-----------------8-|-----11---------6-|-------------------|-4-------------6-|
G|-------------5-----|-----10\------7---|-------------5-----|-----5/7-----7---|
D|------10\6---6-----|---10-------8-----|------10\6---6-----|-----6-----8-----|
A|---10------6-------|-8--------8-------|---10------6-------|---6-----8-------|
E|-8-------4---------|--------6---------|-8-------4---------|-4-----6---------|
   * ^  *  ^ * ^ * ^   * ^ *  ^ * ^ * ^   * ^  *  ^ * ^ * ^   * ^ * ^ * ^ * ^

Pattern 2 (P2)
   Cm      Ab         Fm    Bb          Cm      Ab         Ab    Bb
e|------------------|-----------------|------------------|-----------------|
B|------------------|-----1---------6-|------------------|---4-----------6-|
G|----8--------5----|---1---------7---|----8--------5----|-----5/7-----7---|
D|------10\6---6----|-------8---8-----|------10\6---6----|-----6-----8-----|
A|-10------6--------|-3-----8---------|-10------6--------|-6-----8---------|
E|-8-------4--------|-1-----6---------|-8-------4--------|-4-----6---------|
   *  ^ *  ^ * ^ * ^  * ^ * ^ * ^ * ^   *  ^ *  ^ * ^ * ^  * ^ * ^ * ^ * ^

Pattern 2A (P2A)

   Cm      Ab         Fm    Bb          Cm      Ab         Ab    Bb
e|-8----------------|-----------------|-8----------------|-----------------|
B|------------------|-----1---------6-|------------------|---4-----------6-|
G|----8--------5----|---1---------7---|----8--------5----|-----5/7-----7---|
D|------10\6---6----|-------8---8-----|------10\6---6----|-----6-----8-----|
A|-10------6--------|-3-----8---------|-10------6--------|-6-----8---------|
E|-8-------4--------|-1-----6---------|-8-------4--------|-4-----6---------|
   *  ^ *  ^ * ^ * ^  * ^ * ^ * ^ * ^   *  ^ *  ^ * ^ * ^  * ^ * ^ * ^ * ^

All of the chord changes in this song take place on beat 1 and the & of beat 2:

X     X          (X = Chord Change)
1 & 2 & 3 & 4 &

Here’s the song, with pattern indications:

[INTRO]
P1
Cm   Ab   Fm   Bb   Cm   Ab   Ab   Bb 
P1A
Cm   Ab   Fm   Bb   Cm   Ab   Ab   Bb 
  Ooo-oo-oo-oo        Ooo-oo-oo-oo 

[VERSE 1]
P1
       Cm Ab     Fm              Bb               Cm  Ab Ab Bb 
Am I wrong  for thinking out the box from where I  stay?
P1
       Cm Ab     Fm             Bb            Cm Ab Ab Bb
Am I wrong  for saying that I choose another way?
P1A
         Cm            Ab           Fm     Bb
I ain't trying to do what everybody else doing
           Cm     Ab                 Ab    Bb 
Just cause everybody doing what they all do
P1A
   Cm        Ab            Fm      Bb
If one thing I know, I'll fall but I'll grow
     Cm            Ab                     Ab         Bb  N.C.
I'm walking down this road of mine, this road that I call home

[Chorus] 
P2
         Cm  Ab       Fm              Bb                     Cm  Ab  Ab  Bb
So am I wrong?  For thinking that we could be something for real?
P2
          Cm  Ab     Fm             Bb                       Cm   Ab  Ab  Bb
Now am I wrong? For trying to reach the things that I can’t see?
P2A
                   Cm  Ab Fm  Bb                   Cm   Ab   Ab  Bb
That's just how I feel,         that’s just how I feel
P2A
                   Cm  Ab Fm              Bb                      Cm  Ab     Ab  Bb
That's just how I feel,   trying to reach the things that I can’t see,  see, see

[Verse 2]
P1
       Cm    Ab    Fm    Bb           Cm    Ab  Ab  Bb
Am I tripping   huh     for having a vision?   
P1
       Cm     Ab    Fm      Bb                 Cm   Ab  Ab  Bb
My prediction:      I'ma be on the top of the world   
P1A
Cm                Ab                 Fm            Bb               
   Walk your walk and don't look back   Always do what you decide   
Cm                Ab                  Ab             Bb
   Don't let them control your life, that's just how I feel, whoa
P1A
Cm                 Ab              Fm                 Bb             
   Fight for yours and don't let go   Don't let them compare you, no   
Cm               Ab                Ab             Bb
   Don't worry, you're not alone, that's just how we feel   

[Chorus 2]
P2
       Cm       Ab     
Am I wrong? (Am I wrong?)     
     Fm               Bb                     Cm    Ab               Ab      Bb
For thinking that we could be something for real? (Oh yeah yeah yeah, oh-oh)
P2
           Cm       Ab     
Now am I wrong? (Am I wrong?)     
    Fm              Bb                       Cm   Ab               Ab     Bb
For trying to reach the things that I can't see? (Oh yeah yeah yeah, yeah)   
P2A
                   Cm  Ab Fm  Bb                   Cm   Ab   Ab  Bb
That's just how I feel,         that’s just how I feel
P2A
                   Cm  Ab Fm              Bb                      Cm  Ab     Ab  Bb
That's just how I feel,   trying to reach the things that I can’t see,  see, see

[Bridge]
P1
C     Ab              Fm   Bb       Cm    Ab             Ab   Bb
  If you tell me I'm wrong,  wrong,    I don't wanna be right,  right   
P1
C     Ab              Fm   Bb       Cm    Ab                  Ab   Bb
  If you tell me I'm wrong,  wrong,    I don't wanna be right   
P1A
C        Ab              Fm   Bb       Cm    Ab             Ab   Bb
  Now if you tell me I'm wrong,  wrong,   I don't wanna be right,  right   
P1A
C     Ab              Fm   Bb       Cm   Ab                 Ab   Bb
  If you tell me I'm wrong,  wrong,   I don't wanna be right   

[Chorus 3]
P1
       Cm  Ab     Fm               Bb                     Cm  Ab  Ab  Bb
Am I wrong?  For thinking that we could be something for real?
P1
          Cm  Ab     Fm             Bb                       Cm   Ab  Ab  Bb
Now am I wrong? For trying to reach the things that I can’t see?
P1
                       Cm  Ab Fm  Bb                   Cm   Ab   Ab  Bb
But that's just how I feel,         that’s just how I feel
P1
                   Cm  Ab Fm              Bb                      Cm  Ab     Ab  Bb
That's just how I feel,   trying to reach the things that I can’t see,  see, see
  
[Chorus 4]   
P1
       Cm       Ab     
Am I wrong? (Am I wrong?)     
     Fm               Bb                     Cm    Ab               Ab      Bb
For thinking that we could be something for real? (Oh yeah yeah yeah, oh-oh)
P1
           Cm       Ab     
Now am I wrong? (Am I wrong?)     
    Fm              Bb                       Cm   Ab               Ab     Bb
For trying to reach the things that I can't see? (Oh yeah yeah yeah, yeah)   
P1A
                   Cm  Ab Fm  Bb                   Cm   Ab   Ab  Bb
That's just how I feel,         that’s just how I feel
P1A
                   Cm  Ab Fm              Bb                      Cm  Ab     Ab  Bb Cm
That's just how I feel,   trying to reach the things that I can’t see,  see, see

*********************************** 
| / Slide up 
| \ Slide down
*********************************** 

Enjoy!

            
            
Suggest correction
Creating personal tab
Creating personal tab
You can edit any tab online and save it as your Personal.

You can edit, replace or remove any tab part or add personal notes – all changes will be seen only by you.

Personal tabs can be accessed anytime from any device, even offline.
Learn more »
Give kudos to tab author, rate the tab!
1 2 3 4 5
comments
print report bad tab
guest
You may want to rate the tab now too:
select rating
Wanna post a correction for this tab? Suggest correction