Oops, an error
Loading. Please wait.

El Amor Te Hace Linda chords

version 2
version 2

Whole song

73 views 1 this week
no commentswrite comment
1 2 3 4 5
3 more votes to show rating
add to favorites
×
Save as Personal and add changes to this tab that will be seen only by you. Learn more ›
×
You can save this tab as Personal to edit and correct it or add notes. All changes will be seen only by you. Learn more »
launch autoscroll
font size
0
reset
transpose
0
reset
simplify chords
display chords
guitar tuner
edit
Autoscroll
slow
fast
+/-
esc
set tempo
stop
Strumming
There is no strumming pattern for this song yet. and get +5 IQ
CANCION: EL AMOR TE HACE LINDA
INTÉRPRETE: NICOLA DI BARI
AUTOR: PAOLO FRESCURA
Nota: E (E mayor)
Amigos, espero que les guste mi transcripción; la hice lo más ajustada
posible a la versión original. Cuando señalo (bajo:F)_B7, significa que un
tiempo antes de hacer el acorde B7 hacemos un bajo en la sexta cuerda traste 2.
Se puede colocar capotraste en tercer traste y se logra el mismo tono original.

   INTRODUCCIÓN:  TABLATURA I (dos veces)
  e ----------------|----------------|--------------|------------------|
  B ------------0---|-------------0--|-----------4--|--------------4---|
  G --------1-------|----------1-----|-------1------|----------1-------|
  D ---2------------|--2---2---------|---2----------|--2---2----------|
  A ----------------|----------------|--------------|------------------|
  E ----------------|----------------|--------------|------------------|

  TABLATURA II
e ----------------|----------------|--------------|------------------|
B ------------0---|-------------0--|-----------4--|--------------4---|
G --------1-------|----------1-----|-------1------|----------1-------|
D ---2------------|--2---2---------|---2----------|--2---2----------|
A ----------------|----------------|--------------|------------------|
E ----------------|----------------|--------------|------------------|
 No te encuentro                  cambiada
  TABLATURA III
e ----------------|----------------|--------------|------------------|
B ------------0---|-------------0--|-----------2--|--------------2---|
G --------1-------|----------1-----|-------1------|----------1-------|
D ---2------------|--2---2---------|---2----------|--2---2----------|
A ----------------|----------------|--------------|------------------|
E ----------------|----------------|--------------|------------------|
  Más delgada       quizás si     este otoño
       E7             E7
Si te cuento toda la verdad
     A_A7_Bm    B7        F#m
Te extraño, a veces juro,
              B7            B7
Si lo pienso parece mentira...

                  E
El amor te hace linda
       G#m
No te ayuda que te pintes tanto
       C#m            E7
Tan hermosa, con tus años
                          A
Tú puedes hacer cualquier cosa
   B7            B7
No tengo apuro y puedo
                      B7
acompañarte hasta tu casa

       E                      Asus_A_Asus2
Y yo recuerdo el amor mío por ti
       E                          Dsus2
Te avergonzabas en cada tentativa mía
            F#m                B7
Cuando indecisa aquella noche tú?
         Am           (bajo:F)_B7
Cuando dijiste tu primer sí

                  E
El amor te hace linda
       G#m                      C#m
Yo me acuerdo tu temblar misterioso
     E7                       A
La ternura de tu miedo tan hermoso
  B7
Aquella mano la última defensa
       B7
De tu seno

       E                      A
Y yo recuerdo el amor mío por ti
       E                          D
Te avergonzabas en cada tentativa mía
          F#m                  B7
Cuando indecisa aquella noche tú?
         Am            (bajo:F)_B7
Cuando dijiste tu primer sí
                  E
El amor te hace linda
         G#m                    C#m
Y hoy quisiera que empecemos de nuevo?
        E7        E7     A
A, A, LA, LA, LA, LA, LA, LA, LA?
Suggest correction
Creating personal tab
Creating personal tab
You can edit any tab online and save it as your Personal.

You can edit, replace or remove any tab part or add personal notes – all changes will be seen only by you.

Personal tabs can be accessed anytime from any device, even offline.
Learn more »
Give kudos to tab author, rate the tab!
1 2 3 4 5
comments
print report bad tab
guest
Wanna post a correction for this tab? Suggest correction